Search tabs:
Browse artists: 0-9 | A | B | C | D | E | F | G | H | I | J | K | L | M | N | O | P | Q | R | S | T | U | V | W | X | Y | Z
/ Angra / Angels Cry (1993) / Stand Away guitar tab

Angra - Stand Away
Submitted By: stratovarius5000
EMail: stratovarius5000@yahoo.com


Intro:

        Eb            Gb                Db
||--------------------3-----------3p2--------2-------------
||--------0--------------3-------------3--------3-----3----
||-----1-----1--------------0-------------2--------2-------
||--------------------------------0------------------------
||---------------------------------------------------------
||--0--------------3---------------------------------------


        Bmb           Db                  Eb
||--------------------2------------------------0-----------
||-----------3-----------3---------------0-----0-----------
||--------4-----------------2---------1--------1-----------
||-----4-----------0---------------------------2-----------
||--2------------------------------------------2-----------
||---------------------------------0-----------0-----------


       Eb             Gb                 Db
||--------------------3------------5--5--------------------
||--------0--------------3---------7-----7-----------------
||-----1-----1--------------0------7--------7-----7--------
||---------------------------------7-----------7-----------
||---------------------------------5-----------------------
||--0--------------3---------------------------------------


        Bmb           Db                  Eb
||--------------------2------------------------0-----------
||-----------3-----------3---------------0-----0-----------
||--------4-----------------2---------1--------1-----------
||-----4-----------0---------------------------2-----------
||--2------------------------------------------2-----------
||---------------------------------0-----------0-----------


Angra albums
2005 Temple of Shadows
2002 Hunters and Prey
2001 Rebirth
1998 Fireworks
1996 Holy Land
1993 Angels Cry
1992 Reaching Horizons
Angels Cry tabs
01Carry On tabbass tab
02Time tabbass tab
03Angels Cry tabbass tab
04Stand Away tabbass tab
06Wuthering Heights tabbass tab
08Evil Warning tabbass tab

 

1