Search tabs:
Browse artists: 0-9 | A | B | C | D | E | F | G | H | I | J | K | L | M | N | O | P | Q | R | S | T | U | V | W | X | Y | Z
/ Angra / Hunters and Prey (2002) / Bleeding Heart guitar tab

Intro: Gm Eb9 Cm F [2x com o guitar 1]
Junto com o piano.

Guitar 1:
e|-6-5-3------------------5-6--------
B|-3-3-3-6-4-3--3-1-3-3-6-3-3--------
G|-------3-3-3--5-3-5-3-3------------
D|-----------------------------------
A|-----------------------------------
E|-----------------------------------

Eb9
  Now I know that the end comes
Cm
    You knew since the begining
Eb9                           Gm
  Didn't want to believe it's true
Bb               Eb9        F
  You are alone again, my soul will be with you

Eb9
   Why is the clock even running
Cm
    If my world isn't turning
Eb9                              Gm
 Hear your voice in the doorway wind
    Bb           Eb9       F
 You are alone again I'm only waiting

-Refrão

Bb            Cm
 You tear into pieces my heart
Gm
 Before you leave with no repentance
Eb9         Bb                G#
 I cried to you, my tears turning into blood
     F
 I'm ready to surrender
Bb              Cm
 You say that I take it too hard
Gm
 And all I ask is comprehension
Eb9            Bb                  G#
 Bring back to you a piece of my broken heart
      F                 Eb9  Cm
 I'm ready to surrender

Eb9
 I remember the moments
Cm
     Life was short for the romance
Eb9                        Gm
  Like a rose it will fade away
      Bb               Eb9
 I'm leaving everything
                        Cm
 No regrets, war is over

 The return of a soldier
Eb9                           Gm
 Put my hands on my bleeding heart
     Bb            Eb9
 I'm leaving all behind
     F
 No longer waiting

-Refrão (Essa vai pra minha namorada Juliana Feitosa, Te amo gatinha !!!)

I've waited for so long!

   Eb             Cm                      D
e|-15b--15b-|-15--17--18--17--15---------15---------------------------
B|----------|---------------------16/17------17--15~------------------
G|----------|---------------------------------------------------------
D|----------|---------------------------------------------------------
A|----------|---------------------------------------------------------
E|----------|---------------------------------------------------------

     Bb                          Gm           F
e|----------------------------------------|----------|-----------------
B|----------18---------------------15-----|----------|-----------------
G|-17b(18)------17b(18)17--15--17------15-|-17--14~--|-17--15--14------
D|----------------------------------------|----------|-------------17~-
A|----------------------------------------|----------|-----------------
E|----------------------------------------|----------|-----------------

    Eb                  D               C                  Bb
e|----------------|-----------------|----------------------------------
B|----------------|-----------------|-15--15--15b(16)---------------
G|-14--14h15------|-15--15------17~-|------------------17--15~------
D|------------17~-|---------15------|-------------------------------
A|----------------|-----------------|----------------------------------
E|----------------|-----------------|----------------------------------

      Ab                              Bb
e|--------------------------------------------------------------------
B|---aqui é uma subida muito rápida que não dá pra transcrever!--------
G|---Dica: faça um arpeggio na escala Pentatônica de Bb !!------------
D|---------------------------------------------------------------------
A|---------------------------------------------------------------------
E|-------------------------------------------------------------------

OU (na parte rápida)

|--------------------------------------------------------------------
|--------------------------------------------------------------------
|--------------------------------------------------------------------
|--------------------------------------------------------------------
|--3-2h-1-3-2h-1-5-4h-3-5-4h-3-7-6h-5-10-9h-8-10h-9h-8---------------
|--------------------------------------------------------------------

|--------------------------------------------------------------------
|--------------------------------------------------------------------
|--------------------------------------------------------------------
|--------------------------------------------------------------------
|-13-12h-11h-10-13-12h-11h-10h-17-16h-15h-14h-13h-17-16h-15h-14h-13h-
|--------------------------------------------------------------------

Junto com a voz

|--------------------------------------------------------------------
|-17b-17b-18-19-17h-15-16-15h-14h-13h-12~~-12-14-16-17---------------
|------------------------------------------------------17-16h-14-12--
|--------------------------------------------------------------------
|--------------------------------------------------------------------
|--------------------------------------------------------------------

|------------------------------------------18b-18b-20b-20b-21b-------
|-15-14h-12-15-14h-12-17-15h-14-17-15h-14----------------------------
|--------------------------------------------------------------------
|--------------------------------------------------------------------
|--------------------------------------------------------------------
|--------------------------------------------------------------------

|-19-17h-15h-14~------------------------------------------------------
|----------------15-17-19---------------------------------------------
|-------------------------19-17-15-12~~-15-14h-12-15-14h-12-15-14h-12-
|---------------------------------------------------------------------
|---------------------------------------------------------------------
|---------------------------------------------------------------------

|--------------------------------------------------------------------
|--------------------------------------------------------------------
|--------------------------------------------------------------------
|-15-14h-12-15-14h-12-15-14h-12-12-11h-9-12-11h-9-9-8h-7~------------
|--------------------------------------------------------------------
|--------------------------------------------------------------------


 I'm ready to surrender

|-17b-19b-20b-20b-19-17-15----19b------------------------------------
|--------------------------------------------------------------------
|--------------------------------------------------------------------
|--------------------------------------------------------------------
|--------------------------------------------------------------------
|--------------------------------------------------------------------
-Solo Eb9 Cm D Bb
       Gm F  Eb9 D Cm Bb
       G# F
-Refrão

-Intro

Zurcfe ;)
#LBVidz On EFnet -=- www.lbvidz.cjb.net


Angra albums
2005 Temple of Shadows
2002 Hunters and Prey
2001 Rebirth
1998 Fireworks
1996 Holy Land
1993 Angels Cry
1992 Reaching Horizons
Hunters and Prey tabs
02Bleeding Heart tabbass tab
05Rebirth tabbass tab

 

1