Search tabs:
Browse artists: 0-9 | A | B | C | D | E | F | G | H | I | J | K | L | M | N | O | P | Q | R | S | T | U | V | W | X | Y | Z
/ Angra / Reaching Horizons (1992) / Evil Warning guitar tab

GUITAR
E||--------------------|-----------3--------|---------------------|
B||-----------6--------|--4--------3--------|--11--------6--------|
G||--3--------5--------|--3--------0--------|--10--------5--------|
D||--3--------3--------|--1-----------------|--8---------3--------|
A||--1-----------------|--------------------|---------------------|
E||--------------------|--------------------|---------------------|



-------------------|--------------------|-----------3--------|
--4----------------|-----------6--------|--4--------3--------|
--3----------------|--3--------5--------|--3--------0--------|
--1----------------|--3--------3--------|--1-----------------|
-------------------|--1-----------------|--------------------|
-------------------|--------------------|--------------------|


---------------------|-------------------|------------------|
--11--------6--------|-------------------|------------------|
--10--------5--------|-------------------|------------------|
--8---------3--------|--5----------------|------------------|
---------------------|--5----------------|------------------|
---------------------|--3----------------|------------------|


                                       [A]
-------------------|------------------|-------------------|--------------------|
-------------------|------------------|-------------------|--------------------|
-------------------|------------------|-------------------|-----------3--------|
--5----------------|------------------|--5----------------|--3--------0--------|
--5----------------|------------------|--5----------------|--3-----------------|
--3----------------|------------------|--3----------------|--1-----------------|



-------------------|--------------------|-------------------|
-------------------|--------------------|-------------------|
--3----------------|--3-----------------|-------------------|
--1----------------|--3--------3--------|----5--------------|
-------------------|--1--------3--------|----5--------------|
-------------------|-----------1--------|----3--------------|


                                                 [end of A part]
--------------------|-------------------|---------------------|
--------------------|-------------------|---------------------|
---------------3----|--3----------------|--3------------------|
----------3----0----|--1----------------|--3--------3----3----|
----------3---------|-------------------|--1--------0----3----|
----------1---------|-------------------|----------------1----|

   [0.12]  keyboard whit guitar song
E||------10--------------------------------|
B||----------------13--11------10----------|
G||-------------------------------12-10-12-|
D||--12------12-12---------12--------------|
A||----------------------------------------|
E||----------------------------------------|

|------------------------------------|
|------11--------13------------------|
|--------------------14----------10--|
|--12------12-12---------15--12------|
|------------------------------------|
|------------------------------------|

|------10--------------------------------------|
|----------------13----11----------10----------|
|*-12------12-12----12----12-10-12----12-10-12-|
|*---------------------------------------------|
|----------------------------------------------|
|----------------------------------------------|
                  [repet since the first intro]
|--------------------------------------|
|--------11--------13------------------|
|----------------------14----------10-*|
|--12-12-----12-12---------15--12-----*|
|--------------------------------------|
|--------------------------------------|

guitar 1 (intro of melody)
------------------13----|--10----------------------|------------------13----|
--11--------13----------|--------11----13----10----|--11--------13----------|
------------------------|--------------------------|------------------------|
------------------------|--------------------------|------------------------|
------------------------|--------------------------|------------------------|
------------------------|--------------------------|------------------------|



--10--------------------|------------------13----|--10----------------------|
--------11----13--------|--11--------13----------|--------11----13----10----|
------------------------|------------------------|--------------------------|
------------------------|------------------------|--------------------------|
------------------------|------------------------|--------------------------|
------------------------|------------------------|--------------------------|



------------------------|--------------------|------------------13----|
--11--------10----------|--------------------|--11--------13----------|
------------------12----|--10----------------|------------------------|
------------------------|--------------------|------------------------|
------------------------|--------------------|------------------------|
------------------------|--------------------|------------------------|



--10----------------------|------------------13----|--10--------------------|
--------11----13----10----|--11--------13----------|--------11----13--------|
--------------------------|------------------------|------------------------|
--------------------------|------------------------|------------------------|
--------------------------|------------------------|------------------------|
--------------------------|------------------------|------------------------|



------------------13----|--10----------------------|------------------------|
--11--------13----------|--------11----13----10----|--11--------10----------|
------------------------|--------------------------|------------------12----|
------------------------|--------------------------|------------------------|
------------------------|--------------------------|------------------------|
------------------------|--------------------------|------------------------|


--------------------|
--------------------|
--10----------------|
--------------------|
--------------------|
--------------------|
In this time your have to pay much atention cause in this ritm this psrt may give some problem
x3
|--------------------------------------|-------------------------------|
|--------3--------3--------3--------1--|--3----------------------------|
|--------2--------2--------2--------0--|--2--------------5-------5--7--|
|--0--0-----0--0-----0--0-----0--0-----|-----0--0--0--0-------7-----0--|
|--------------------------------------|-----------------3----0--3-----|
|--------------------------------------|-------------------------------|


E||--------------------------------------|
B||--------3--------3--------3--------1--|
G||--------2--------2--------2--------0--|
D||--0--0-----0--0-----0--0-----0--0-----|
A||--------------------------------------|
E||--------------------------------------|


  g1 & g2
-----------0--0--0--0--1--1--2--2--3--3--3--3--|
--3--4--4--------------------------------------|
--2--------------------------------------------|
-----1--1--2--2--2--2--3--3--4--4--5--5--5--5--|
-----------------------------------------------|
-----------------------------------------------|


--------------------------------------|-------------------------------------|
--3--------------3--3--------------3--|--1--------------1----------------1--|
--2--------------2--2--------------2--|--0--------------0----------------0--|
--0--0--0--0--0--0--0--0--0--0--0--0--|-----0--0--0--0-------0--0--0--0-----|
--------------------------------------|-------------------------------------|
--------------------------------------|-------------------------------------|



--------------------------------------|
--3--------------3--3--------------3--|
--2--------------2--2--------------2--|
--0--0--0--0--0--0--0--0--0--0--0--0--|
--------------------------------------|
--------------------------------------|



--------------------------------------------------|
--------------------------------------------------|
--2--2--2--2--2--2--2--2--2--2--2--2--2--2--2--2--|
--------------------------------------------------|
--0--0--0--0--0--0--0--0--0--0--0--0--0--0--0--0--|
--------------------------------------------------|



--------------------------------------|--------------------------------------|
--3--------------3--3--------------3--|--3--------------3--3--------------3--|
--2--------------2--2--------------2--|--2--------------2--2--------------2--|
--0--0--0--0--0--0--0--0--0--0--0--0--|--0--0--0--0--0--0--0--0--0--0--0--0--|
--------------------------------------|--------------------------------------|
--------------------------------------|--------------------------------------|



--------------------------------------------------|
--------------------------------------------------|
--3--3--3--3--3--2--3--3--3--3--2--3--3--3--3--3--|
--------------------------------------------------|
--1--1--1--1--1--0--1--1--1--1--0--1--1--1--1--1--|
--------------------------------------------------|



--------------------------------------------------|
--------------------------------------------------|
--3--3--3--2--2--2--3--3--3--3--3--3--3--3--3--3--|
--------------------------------------------------|
--1--1--1--0--0--0--1--1--1--1--1--1--1--1--1--1--|
--------------------------------------------------|



--------------------------------------|-------------------------------------|
--3--------------3--3--------------3--|--1--------------1----------------1--|
--2--------------2--2--------------2--|--0--------------0----------------0--|
--0--0--0--0--0--0--0--0--0--0--0--0--|-----0--0--0--0-------0--0--0--0-----|
--------------------------------------|-------------------------------------|
--------------------------------------|-------------------------------------|



--------------------------------------|
--3--------------3--3--------------3--|
--2--------------2--2--------------2--|
--0--0--0--0--0--0--0--0--0--0--0--0--|
--------------------------------------|
--------------------------------------|



--------------------------------------------------|
--------------------------------------------------|
--2--2--2--2--2--2--2--2--2--2--2--2--2--2--2--2--|
--------------------------------------------------|
--0--0--0--0--0--0--0--0--0--0--0--0--0--0--0--0--|
--------------------------------------------------|



--------------------------------------|--------------------------------------|
--3--------------3--3--------------3--|--3--------------3--3--------------3--|
--2--------------2--2--------------2--|--2--------------2--2--------------2--|
--0--0--0--0--0--0--0--0--0--0--0--0--|--0--0--0--0--0--0--0--0--0--0--0--0--|
--------------------------------------|--------------------------------------|
--------------------------------------|--------------------------------------|



--------------------------------------------------|
--------------------------------------------------|
--3--3--3--3--3--2--3--3--3--3--2--3--3--3--3--3--|
--------------------------------------------------|
--1--1--1--1--1--0--1--1--1--1--0--1--1--1--1--1--|
--------------------------------------------------|



--------------------------------------------------|
--------------------------------------------------|
--3--3--3--3--3--3--3--3--3--3--3--3--3--3--3--3--|
--------------------------------------------------|
--1--1--1--1--1--1--1--1--1--1--1--1--1--1--1--1--|
--------------------------------------------------|

"Pont"	Evil Warning
--------------------------------------|-------------------------------|
--------3--------3--------3--------1--|--3----------------------------|
--------2--------2--------2--------0--|--2----------------------------|
--0--0-----0--0-----0--0-----0--0-----|-----0--0--0--0-------------0--|
--------------------------------------|-----------------3----0--3-----|
--------------------------------------|-------------------------------|



--------------------------------------|-------------------||
--------3--------3--------3--------3--|--1----------------||
--------2--------2--------2--------2--|--0----------------||
--0--0-----0--0-----0--0-----0--0-----|-------------------||
--------------------------------------|-------------------||
--------------------------------------|-------------------||



E||--------------------------------------|-------------------------------|
B||--------3--------3--------3--------1--|--3----------------------------|
G||--------2--------2--------2--------0--|--2----------------------------|
D||--0--0-----0--0-----0--0-----0--0-----|-----0--0--0--0----------------|
A||--------------------------------------|-----------------3----0--3--5--|
E||--------------------------------------|-------------------------------|



--------------------------------------|-------------------------------------|
--------3--------3--------3--------3--|-------------------------------------|
--------2--------2--------2--------2--|--5--------------5--5-------------5--|
--0--0-----0--0-----0--0-----0--0-----|--5--------------5--5-------------5--|
--------------------------------------|--3--3--3--3--3--3--3-3--3--3--3--3--|
--------------------------------------|-------------------------------------|


                                        x2
|------------------------------------------|
|------------------------------------------|
|------------------------------------------|
|--5---5--5--5--5--5---5---5--5--5--5--5---|
|--5---5--5--5--5--5---5---5--5--5--5--5---|
|--3---3--3--3--3--3---3---3--3--3--3--3---|




------------------------------------------|--------------------||
------------------------------------------|-----------3--------||
--3---3--3--3--3--3---3---3--3--3--3--3---|--3--------3--------||
--3---3--3--3--3--3---3---3--3--3--3--3---|--3--------3--------||
--1---1--1--1--1--1---1---1--1--1--1--1---|--1--------1--------||
------------------------------------------|--------------------||

--------------------------------------|-------------------------------|
--------3--------3--------3--------1--|--3----------------------------|
--------2--------2--------2--------0--|--2--------------5-------5--7--|
--0--0-----0--0-----0--0-----0--0-----|-----0--0--0--0-------7-----0--|
--------------------------------------|-----------------3----0--3-----|
--------------------------------------|-------------------------------|



--------------------------------------|-------------------||
--------3--------3--------3--------3--|--1----------------||
--------2--------2--------2--------2--|--0----------------||
--0--0-----0--0-----0--0-----0--0-----|-------------------||
--------------------------------------|-------------------||
--------------------------------------|-------------------||



E||--------------------------------------|-------------------------------|
B||--------3--------3--------3--------1--|--3----------------------------|
G||--------2--------2--------2--------0--|--2----------------------------|
D||--0--0-----0--0-----0--0-----0--0-----|-----0--0--0--0----------------|
A||--------------------------------------|-----------------3----0--3--5--|
E||--------------------------------------|-------------------------------|



--------------------------------------|-------------------------------------|
--------3--------3--------3--------3--|-------------------------------------|
--------2--------2--------2--------2--|--5--------------5--5-------------5--|
--0--0-----0--0-----0--0-----0--0-----|--5--------------5--5-------------5--|
--------------------------------------|--3--3--3--3--3--3--3-3--3--3--3--3--|
--------------------------------------|-------------------------------------|

                                         x2
|------------------------------------------|
|------------------------------------------|
|------------------------------------------|
|--3---3--3--3--3--3---3---3--3--3--3--3---|
|--3---3--3--3--3--3---3---3--3--3--3--3---|
|--1---1--1--1--1--1---1---1--1--1--1--1---|


|--------------------------------------------------|-------------------|
|--------------------------------------------------|--4----------------|
|--------------------------------------------------|--3----------------|
|--1--1--1--1--1--1--1--1--1--1--1--1--1--1--1--1--|--1----------------|
|--------------------------------------------------|-------------------|
|--------------------------------------------------|-------------------|


-------------------|------------------|-------------------|-------------------|
-------------------|------------------|-------------------|--3----------------|
-------------------|------------------|-------------------|--2----------------|
--5----------------|------------------|--3----------------|--0----------------|
--5----------------|------------------|--3----------------|-------------------|
--3----------------|------------------|--1----------------|-------------------|



--------------------|-------------------|------------------|-------------------|
--------------------|-------------------|------------------|-------------------|
--5-----------------|-------------------|------------------|-------------------|
--5--------3--------|----5--------------|------------------|--3----------------|
--3--------3--------|----5--------------|------------------|--3----------------|
-----------1--------|----3--------------|------------------|--1----------------|



-------------------|--------------------------------------------------|
--3----------------|--------------4--4--1--1--------------------------|
--2----------------|--0--0--3--3--3--3--1--1--3--3--1--1--0--0--------|
--0----------------|--1--1--5--5--------------5--5--3--3--1--1--3--3--|
-------------------|--------------------------------------------5--5--|
-------------------|--------------------------------------------------|



--------------------------------------------------||
--------------------------------------------------||
--------0--0--3--3--1--1--0--0--------------------||
--1--1--1--1--5--5--3--3--1--1--3--3--1--1--3--3--||
--3--3--------------------------5--5--3--3--5--5--||
--------------------------------------------------||

|-------------------|--1----------------||
|--3----------------|--1----------------||
|--3----------------|--2----------------||
|--3----------------|--3----------------||
|--1----------------|--3----------------||
|-------------------|--1----------------||

*go to A part
*Bass part then..


E||-----------|--------------------------|------------------------------|
B||--3--------|--3----3------------------|------------------------------|
G||--2--------|--2----2------------------|------------------0-----------|
D||--0--------|--0----0------1---0---1---|--0---0---0-----------4---1---|
A||-----------|--------------------------|------------------------------|
E||-----------|--------------------------|------------------------------|



------------------------------|------------------------------------|
--3------3--------------------|--------------3----------------3----|
--2------2--------------------|--------------2----------------2----|
--0------0--0-----1---0-------|--------------0----------------0----|
-----0--------------------1---|--0--0--0--0-------0--0--0--0-------|
------------------------------|------------------------------------|



|----------------------------|-----------------------------|
|----3----3------------------|----------3------------------|
|**--2----2------------------|----------2------0-----------|
|**--0----0------1---0---1---|--0---0---0----------4---1---|
|----------------------------|-----------------------------|
|----------------------------|-----------------------------|


                                                         repet
----------------------------|-------------------------------------||
--3------3------------------|--------------3----------------3-----||
--2------2------------------|--------------2----------------2--**-||
--0--0---0------1---0-------|--------------0----------------0--**-||
------------------------1---|--0--0--0--0-------0--0--0--0--------||
----------------------------|-------------------------------------||

   inter.
E||--------------------|----------------------|--------------------|
B||--------------------|------/8----7---------|--------------------|
G||--7----------8------|--7--------------8----|--7-----------------|
D||--------------------|----------------------|-------------8------|
A||--------------------|----------------------|--------------------|
E||--------------------|----------------------|--------------------|



-------------------|--------------------|----------------------|
-------------------|--------------------|------/8----7---------|
-------------------|--7----------8------|--7--------------8----|
--7----------------|--------------------|----------------------|
-------------------|--------------------|----------------------|
-------------------|--------------------|----------------------|



--------------------|-------------------|--------------------|
--------------------|-------------------|--------------------|
--7-----------------|-------------------|--7----------8------|
-------------8------|--7----------------|--------------------|
--------------------|-------------------|--------------------|
--------------------|-------------------|--------------------|



----------------------|--------------------|-------------------|
------/8----7---------|--------------------|-------------------|
--7--------------8----|--7-----------------|-------------------|
----------------------|-------------8------|--7----------------|
----------------------|--------------------|-------------------|
----------------------|--------------------|-------------------|



--------------------|----------------------|--------------------|
--------------------|------/8----7---------|--------------------|
--7----------8------|--7--------------8----|--7-----------------|
--------------------|----------------------|-------------8------|
--------------------|----------------------|--------------------|
--------------------|----------------------|--------------------|



-------------------||
-------------------||
-------------------||
--7----------------||
-------------------||
-------------------||

SOLO

E||----------------------------------|------------------------|
B||------------------------------10--|--11--------10----------|
G||----------------------10--12------|------------------12----|
D||----------10--12--13--------------|------------------------|
A||----------------------------------|------------------------|
E||----------------------------------|------------------------|



--------------------------|----------------------|----------------------------|
--10----------------10----|--11------------10----|----------------10--11--13--|
--------------10----------|----------------------|--15--------12--------------|
--------10----------------|----------------------|----------------------------|
--------------------------|----------------------|----------------------------|
--------------------------|----------------------|----------------------------|



----------13----------------|-----------------------------|
--13----------13------13-11-|--13------13-11-13-10--------|
----------------------------|-----------------------------|
----------------------------|-----------------------------|
----------------------------|-----------------------------|
----------------------------|-----------------------------|



-----------------------10-12-13-15-13-------------|
------------10--11-13-----------------16-15-16-18-|
-----10-14----------------------------------------|
--14----------------------------------------------|
--------------------------------------------------|
--------------------------------------------------|



--15----------------15----15-17-18-17-18-20-18-20-22-20-17-18-20-17-18-17-|
-----18-16-15-16-18----18-------------------------------------------------|
--------------------------------------------------------------------------|
--------------------------------------------------------------------------|
--------------------------------------------------------------------------|
--------------------------------------------------------------------------|



----------17-------17----|--17---------------18-17----|
----------------------18-|----------------18-------18-|
-------------------------|----------------------------|
-------------------------|----------------------------|
-------------------------|----------------------------|
-------------------------|----------------------------|



------------20--22--23--22--23--24-24---|------24--24--22--------|
--22----23------------------------------|------------------------|
----------------------------------------|------------------------|
----------------------------------------|------------------------|
----------------------------------------|------------------------|
----------------------------------------|------------------------|



----------------------------------------|
-------------------23----23-20-------18-|
----------------22-------------20-17----|
-------------20-------------------------|
--18------18----------------------------|
----------------------------------------|



-----------------------------------------------------------|
-----------------------------------------------------15-16-|
---17-15----17----15-19-17-15------------------15-17-------|
---------17----17-------------17---------17-19-------------|
---------------------------------20---20-------------------|
------------------------------------22---------------------|



--------------------|--------------------|--------------------||
--18----------------|--17----------------|--16----------------||
--------------------|--------------------|--------------------||
--------------------|--------------------|--------------------||
--------------------|--------------------|--------------------||
--------------------|--------------------|--------------------||

   Guitar ritmated with the SOLO
E||-------------------|-------------------|--------------------|
B||-------------------|-------------------|--3------------6----|
G||--3----------------|--5----------------|--0------------2----|
D||--1----------------|--3----------------|--------------------|
A||-------------------|-------------------|--------------------|
E||-------------------|-------------------|--------------------|


--------------------|-------------------|-------------------|
--6--------6--------|-------------------|-------------------|
--3--------3--------|--3----------------|-------------------|
--------------------|--3----------------|--5----------------|
--------------------|--1----------------|--3----------------|
--------------------|-------------------|-------------------|
--------------------|-------------------|-------------------|



-------------------|-------------------|-------------------|-------------------|
-------------------|-------------------|-------------------|-------------------|
--5----------------|--5----------------|--3----------------|--5----------------|
--5----------------|--5----------------|--1----------------|--3----------------|
--3----------------|--3----------------|-------------------|-------------------|
-------------------|-------------------|-------------------|-------------------|



--------------------|-------------------|-------------------|
--3------------6----|--6----------------|-------------------|
--0------------2----|--3----------------|--3----------------|
--------------------|-------------------|--1----------------|
--------------------|-------------------|-------------------|
--------------------|-------------------|-------------------|



-------------------|-------------------|-------------------|-------------------|
-------------------|-------------------|-------------------|-------------------|
--5----------------|--5----------------|--5----------------|--5----------------|
--3----------------|--5----------------|--5----------------|--5----------------|
-------------------|--3----------------|--3----------------|--3----------------|
-------------------|-------------------|-------------------|-------------------|



------------------||
------------------||
------------------||
------------------||
------------------||
------------------||

classic seg.
E||--------------------------------------|-----------------------------------|
B||--------------------------------------|-----------------------------------|
G||--------------------------------------|--5--------5--------5--------5--5--|
D||--5--------------5--5--------------5--|--5--------5--------5--------5--5--|
A||--5--------------5--5--------------5--|--3--3--3--3--3--3--3--3--3--3--3--|
E||--3--3--3--3--3--3--3--3--3--3--3--3--|-----------------------------------|



--------------------------------------|-----------------------------------|
--------------------------------------|-----------------------------------|
--------------------------------------|--3--------3--------3--------3--3--|
--3--------------3--3--------------3--|--3--------3--------3--------3--3--|
--3--------------3--3--------------3--|--1--1--1--1--1--1--1--1--1--1--1--|
--1--1--1--1--1--1--1--1--1--1--1--1--|-----------------------------------|



--------------------------------------|-----------------------------------|
--4--------------4--4--------------4--|-----------------------------------|
--3--------------3--3--------------3--|-----------------------------------|
--1--1--1--1--1--1--1--1--1--1--1--1--|--7--------7--------7--------7--7--|
--------------------------------------|--0--0--0--0--0--0--0--0--0--0--0--|
--------------------------------------|-----------------------------------|



--------------------------------------|--------------------|
--3--------------3--3--------------3--|--------------------|
--2--------------2--2--------------2--|--0-----------------|
--0--0--0--0--0--0--0--0--0--0--0--0--|--0--------3--------|
--------------------------------------|-----------3--------|
--------------------------------------|--3--------1--------|


   SOLO 2
|--------------------------------------|--------------------------------------|
|--------------------------------------|--------------------------------------|
|--------------------------------------|--3--------------3--3--------------3--|
|--3--------------3--3--------------3--|--1--1--1--1--1--1--1--1--1--1--1--1--|
|--1--1--1--1--1--1--1--1--1--1--1--1--|--------------------------------------|
|--------------------------------------|--------------------------------------|



--------------------------------------|--------------------------------------|
--------------------------------------|--------------------------------------|
--------------------------------------|--------------------------------------|
--1-----------------------------------|--6--------------6--6--------------6--|
-----------------6--6--------------6--|--4--4--4--4--4--4--4--4--4--4--4--4--|
--4--4--4--4--4--4--4--4--4--4--4--4--|--------------------------------------|



--------------------------------------|--------------------------------------|
--------------------------------------|--------------------------------------|
--------------------------------------|--------------------------------------|
--------------------------------------|--------------------------------------|
--4--------------4--4--------------4--|--3--3--3--3--3--3--3--3--3--3--3--3--|
--2--2--2--2--2--2--2--2--2--2--2--2--|--------------------------------------|



--------------------------------------||
--------------------------------------||
--------------------------------------||
--------------------------------------||
--3--------------3--3--------------3--||
--1--1--1--1--1--1--1--1--1--1--1--1--||


 keyboard with guitar song(for guitar!)
E||------------------------------------------------|
B||------------------------------------------------|
G||------------------------------------------------|
D||----12--12--12--12--12--12--12---12---12---12---|
A||----13--13--13--13--13--13--13---13---13---13---|
E||------------------------------------------------|



------------------------------------------|
--16--------16--------16--------16--------|
--17--------17--------17--------17--------|
-------17--------17--------17--------17---|
-------18--------18--------18--------18---|
------------------------------------------|



------------------------------------------------|
------------------------------------------------|
------------------------------------------------|
----10--10--10--10--10--10--10---10---10---10---|
----12--12--12--12--12--12--12---12---12---12---|
------------------------------------------------|



------------------------------------------|
--15--------15--------15--------15--------|
--15--------15--------15--------15--------|
------------------------------------------|
-------17--------17--------17--------17---|
-------18--------18--------18--------18---|



------------------------------------------------|
------------------------------------------------|
------------------------------------------------|
----17--17--17--17--17--17--17---17---17---17---|
----13--13--13--13--13--13--13---13---13---13---|
------------------------------------------------|



------------------------------------------|
--13--------13--------13--------13--------|
--14--------14--------14--------14--------|
-------12--------12--------12--------12---|
-------15--------15--------15--------15---|
------------------------------------------|



------------------------------------------------|
------------------------------------------------|
------------------------------------------------|
------------------------------------------------|
----12--12--12--12--12--12--12---12---12---12---|
----14--14--14--14--14--14--14---14---14---14---|



------------20--18--17--18--20---20---22--20--18--20--|--21--------[18]------||
--20---20---------------------------------------------|----------------------||
------------17--15--14--15--17---17---19--17--15--17--|----------------------||
--17---17---------------------------------------------|--23------------------||
------------------------------------------------------|----------------------||
------------------------------------------------------|----------------------||

    SOLO 3
E||--18----------------|--------------------------|------------------------|
B||--------------------|--19----19----18----19----|--19------------18--16--|
G||--------------------|--------------------------|------------------------|
D||--------------------|--------------------------|------------------------|
A||--------------------|--------------------------|------------------------|
E||--------------------|--------------------------|------------------------|



--------------------------|--------------------|
--19----18----16----------|--------------------|
--------------------15----|--15----------------|
--------------------------|--------------------|
--------------------------|--------------------|
--------------------------|--------------------|



--------------------------------------------------|
--------------------------16-13----13-16-13-16-13-|
--14-------11-14-11-14-11-------14----------------|
-----16-13----------------------------------------|
--------------------------------------------------|
--------------------------------------------------|



--18-------18-------18----17-------17-------17----||
-----18-18----18-18----18----18-18----18-18----18-||
--------------------------------------------------||
--------------------------------------------------||
--------------------------------------------------||
--------------------------------------------------||


E||--10-8----8-10-8----8-10-8----8-10-8----8-|
B||-------11--------11--------11--------11---|
G||------------------------------------------|
D||------------------------------------------|
A||------------------------------------------|
E||------------------------------------------|



--11-8----8-11-8----8-11-8----8-11-8-------|
-------11--------11--------11--------11-10-|
-------------------------------------------|
-------------------------------------------|
-------------------------------------------|
-------------------------------------------|



--8----------8----------8----------8----------|
----11-10-11---11-10-11---11-10-11---11-10-11-|
----------------------------------------------|
----------------------------------------------|
----------------------------------------------|
----------------------------------------------|



--10-8----8-10-8----8-10-8----8-10-8----8-|
-------11--------11--------11--------11---|
------------------------------------------|
------------------------------------------|
------------------------------------------|
------------------------------------------|



--11-8----8-11-8----8-11-8----8-11-8-------|
-------11--------11--------11--------11-10-|
-------------------------------------------|
-------------------------------------------|
-------------------------------------------|
-------------------------------------------|



--8----------8----------8----------8----------|
----11-10-11---11-10-11---11-10-11---11-10-11-|
----------------------------------------------|
----------------------------------------------|
----------------------------------------------|
----------------------------------------------|



--------------8----------8----------8-------8-|--------------------|
--10-11-10-11---11-10-11---11-10-11---11-10---|--11----------------|
----------------------------------------------|--------------------|
----------------------------------------------|--------------------|
----------------------------------------------|--------------------|
----------------------------------------------|--------------------|

*play the intro then...
E||--------------------------------------|
B||--------------------------------------|
G||--------------------5--------------5--|
D||--3--------------3--3--3--3--3--3--3--|
A||--1--1--1--1--1--1--------------------|
E||--------------------------------------|



--------------------------------------|--------------------------------------|
--------------------3--------------3--|--3--------------3--------------------|
--3--------------3--0--0--0--0--0--0--|--3--3--3--3--3--3--5--------------5--|
--1--1--1--1--1--1--------------------|--------------------3--3--3--3--3--3--|
--------------------------------------|--------------------------------------|
--------------------------------------|--------------------------------------|



------------------------------------|--------------------------------------|
------------------------------------|--------------------------------------|
--------------3----------------3----|--------------------5--------------5--|
--1--1--1--1--1----1--1--1--1--1----|--3--------------3--3--3--3--3--3--3--|
------------------------------------|--1--1--1--1--1--1--------------------|
------------------------------------|--------------------------------------|



--------------------------------------|--------------------------------------|
--------------------3--------------3--|--3--------------3--------------------|
--3--------------3--0--0--0--0--0--0--|--3--3--3--3--3--3--5--------------5--|
--1--1--1--1--1--1--------------------|--------------------3--3--3--3--3--3--|
--------------------------------------|--------------------------------------|
--------------------------------------|--------------------------------------|



--6----------------||
--6----------------||
--7----------------||
--8----------------||
--8----------------||
--6----------------||


*play the pont

*play the beginnin of the melody






Guitar 2 with melodic enter (last time)
E||------------------------------------|-----------------------------------|
B||------------------------------------|-----------------------------------|
G||------------------------------------|-----------------------------------|
D||------------------------------------|---------------------------------0-|
A||--1-1-1-1-1-1-1-1-1-1-1-1-1-1-1-1---|-----------------------------------|
E||----------------------------------1-|---1-1-1-1-1-1-1-1-1-1-1-1-1-1-1---|



-----------------------------------|-----------------------------------|
-----------------------------------|-----------------------------------|
-----------------------------------|-----------------------------------|
---0-0-0-0-0-0-0-0-0-0-0-0-0-0-0-0-|---0-0-0-0-0-0-0-0-0-0-0-0-0-0-0-1-|
-----------------------------------|-----------------------------------|
-----------------------------------|-----------------------------------|



-----------------------------------|-----------------------------------|
-----------------------------------|-----------------------------------|
---------------------------------0-|---0-0-0-0-0-0-0-0-0-0-0-0-0-0-0---|
---1-1-1-1-1-1-1-1-1-1-1-1-1-1-1---|---------------------------------3-|
-----------------------------------|-----------------------------------|
-----------------------------------|-----------------------------------|



-----------------------------------|-----------------------------------|
-----------------------------------|-----------------------------------|
-----------------------------------|---------------------------------0-|
---3-3-3-3-3-3-3-3-3-3-3-3-3-3-3-3-|---3-3-3-3-3-3-3-3-3-3-3-3-3-3-3---|
-----------------------------------|-----------------------------------|
-----------------------------------|-----------------------------------|

-----3-------3-------3-------1---|--3----------------||
-----3-------3-------3-------1---|--3----------------||
---0-----0-0-----0-0-----0-0-----|--0----------------||
---------------------------------|-------------------||
---------------------------------|-------------------||
---------------------------------|-------------------||
by:APOKALIPTICAL


Angra albums
2005 Temple of Shadows
2002 Hunters and Prey
2001 Rebirth
1998 Fireworks
1996 Holy Land
1993 Angels Cry
1992 Reaching Horizons
Reaching Horizons tabs
01Evil Warning tabbass tab
02Time tabbass tab
03Reaching Horizons tabbass tab
04Carry On tabbass tab
05Queen of the night tabbass tab
06Angels Cry tabbass tab

 

1