Search tabs:
Browse artists: 0-9 | A | B | C | D | E | F | G | H | I | J | K | L | M | N | O | P | Q | R | S | T | U | V | W | X | Y | Z
/ Angra / Rebirth (2001) / Heroes of Sand guitar tab

Submitted by: Matt Monju, the mik rooler(old skoola)

E||-------------------------------17t|-----------------------------------|
B||--------8----12t------------15t---|-----------12t---------------15t---|
G||----------------------11-14t------|------7----------------11----------|
D||------9---12t---------------------|--------12t---12t---------14t---14t|
A||----7--------------12-------------|----9---------------12-------------|
E||--0-------------10----------------|--7--------------10----------------|



-------------------------------17t|------------------------------15t|
--------8----12t------------15t---|-----------12t-------------13t---|
----------------------11-14t------|------7---------------9----------|
------9---12t---------------------|--------12t---12t-------12t------|
----7--------------12-------------|----9--------------10------------|
--0-------------10----------------|--7--------------8---------------|



--------12t-----12t-----------|--------12t-----12t-----------|
--------10t-----10t--------10t|--------10t-----10t--------10t|
------5------------5----------|------5------------5----------|
--------9t------9t-------9t---|--------9t------9t-------9t---|
----7---------7------7--------|----7---------7------7--------|
--5---------5----------5------|--5---------5----------5------|



-------------------------------17t|-----------------------------------|
--------8----12t------------15t---|-----------12t---------------15t---|
----------------------11-14t------|------7----------------11----------|
------9---12t---------------------|--------12t---12t---------14t---14t|
----7--------------12-------------|----9---------------12-------------|
--0-------------10----------------|--7--------------10----------------|



-------------------------------17t|-----------------------------------|
--------8----12t------------15t---|-----------12t---------------15t---|
----------------------11-14t------|------7----------------11----------|
------9---12t---------------------|--------12t---12t---------14t---14t|
----7--------------12-------------|----9---------------12-------------|
--0-------------10----------------|--7--------------10----------------|



-------------------------------17t|------------------------------15t|
--------8----12t------------15t---|-----------12t-------------13t---|
----------------------11-14t------|------7---------------9----------|
------9---12t---------------------|--------12t---12t-------12t------|
----7--------------12-------------|----9--------------10------------|
--0-------------10----------------|--7--------------8---------------|



--------12t-----12t-----------|--------12t-----12t-----------|
--------10t-----10t--------10t|--------10t-----10t--------10t|
------5------------5----------|------5------------5----------|
--------9t------9t-------9t---|--------9t------9t-------9t---|
----7---------7------7--------|----7---------7------7--------|
--5---------5----------5------|--5---------5----------5------|



-------------------------------17t|---------------------------------|
--------8----12t------------15t---|-----------12t-------------13t---|
----------------------11-14t------|------7---------------9----------|
------9---12t---------------------|--------12t---12t-------12t---12t|
----7--------------12-------------|----9--------------10------------|
--0-------------10----------------|--7--------------8---------------|



--------12t-----12t----------|---------------------------------|
--------10t-----10t------12t-|--13t---------13t----------13t---|
------5------------5---------|--9t------------------9----------|
--------9t------9t-------12t-|--12t------12t----------12t---12t|
----7---------7------7-------|--10t---10---------10------------|
--5---------5----------5-7t--|--8t--8----------8---------------|



-------------------------------17t|---------------------------------|
--------8----12t------------15t---|-----------12t-------------13t---|
----------------------11-14t------|------7---------------9----------|
------9---12t---------------------|--------12t---12t-------12t---12t|
----7--------------12-------------|----9--------------10------------|
--0-------------10----------------|--7--------------8---------------|



--------12t-----12t----------|----------------|------------------------|
--------10t-----10t------12t-|--13t-----------|------------------------|
------5------------5---------|--9t------------|------------------------|
--------9t------9t-------12t-|--12t-----------|--4----4-----5----5-----|
----7---------7------7-------|--10t-----------|--2--2-2-2-2-2--2-2-2-2-|
--5---------5----------5-7t--|--8t------------|------------------------|



----------------------|------------------------|----------------------|
----------------------|------------------------|----------------------|
----------------------|------------------------|----------------------|
--7----7-----7--7--7--|--4----4-----5----5-----|--7----7-----7--7--7--|
--4--4-4-4-4-5--4--5--|--2--2-2-2-2-2--2-2-2-2-|--4--4-4-4-4-5--4--5--|
----------------------|------------------------|----------------------|



--3-3--3--3-3--3-3----|--0-0--0--0-0--0-0-0-0-|------------------------|
--3-3--3--3-3--3-3----|--0-0--0--0-0--0-0-0-0-|------------------------|
--0-0--0--0-0--0-0----|--1-1--1--1-1--1-1-1-1-|------------------------|
--0-0--0--0-0--0-0----|--2-2--2--2-2--2-2-2-2-|--4----4-----5----5-----|
--2-2--2--2-2--2-2----|--2-2--2--2-2--2-2-2-2-|--2--2-2-2-2-2--2-2-2-2-|
--3-3--3--3-3--3-3-2--|--0-0--0--0-0--0-0-0-0-|------------------------|



----------------------|------------------------|----------------------|
----------------------|------------------------|----------------------|
----------------------|------------------------|----------------------|
--7----7-----7--7--7--|--4----4-----5----5-----|--7----7-----7--7--7--|
--4--4-4-4-4-5--4--5--|--2--2-2-2-2-2--2-2-2-2-|--4--4-4-4-4-5--4--5--|
----------------------|------------------------|----------------------|



--3-3--3--3-3--3-3----|--0-0--0--0-0--0-0-0-0-|----------------------|
--3-3--3--3-3--3-3----|--0-0--0--0-0--0-0-0-0-|----------------------|
--0-0--0--0-0--0-0----|--1-1--1--1-1--1-1-1-1-|----------------------|
--0-0--0--0-0--0-0----|--2-2--2--2-2--2-2-2-2-|--5-5--5--5-5--5-5----|
--2-2--2--2-2--2-2----|--2-2--2--2-2--2-2-2-2-|--3-3--3--3-3--3-3-2--|
--3-3--3--3-3--3-3-2--|--0-0--0--0-0--0-0-0-0-|----------------------|



-----------------------|--0-0--0--0-0-0--0--0-|--0-0--0--0-0-0--0--0-|
-----------------------|--0-0--0--0-0-0--0--0-|--0-0--0--0-0-0--0--0-|
-----------------------|--1-1--1--1-2-2--2--2-|--1-1--1--1-2-2--2--2-|
--2-2--2--2-2--2-2-2-2-|--2-2--2--2-2-2--2--2-|--2-2--2--2-2-2--2--2-|
--0-0--0--0-0--0-0-0-0-|--2-2--2--2-2-2--2--2-|--2-2--2--2-2-2--2--2-|
-----------------------|--0-0--0--0-0----0--0-|--0-0--0--0-0-0--0--0-|



-----------------------|-----------------------|-----------------------|
-----------------------|-----------------------|-----------------------|
-----------------------|-----------------------|-----------------------|
--2-2--2--2-2--2-2-2-2-|-----------------------|--5-5--5--5-5--5-5-5-5-|
--0-0--0--0-0--0-0-0-0-|--3-3--3--3-3--3-3-3-3-|--3-3--3--3-3--3-3-3-3-|
-----------------------|--1-1--1--1-1--1-1-1-1-|-----------------------|



-----------------------|-----------------------|-----------------------|
-----------------------|-----------------------|-----------------------|
-----------------------|-----------------------|-----------------------|
-----------------------|--2-2--2--2-2--2-2-2-2-|-----------------------|
--5-5--5--5-5--5-5-5-5-|--0-0--0--0-0--0-0-0-0-|--3-3--3--3-3--3-3-3-3-|
--3-3--3--3-3--3-3-3-3-|-----------------------|--1-1--1--1-1--1-1-1-1-|



-----------------------|-----------------------|-----------------------|
-----------------------|-----------------------|-----------------------|
-----------------------|-----------------------|-----------------------|
--5-5--5--5-5--5-5-5-5-|-----------------------|--2-2--2--2-2--2-2-2-2-|
--3-3--3--3-3--3-3-3-3-|--5-5--5--5-5--5-5-5-5-|--0-0--0--0-0--0-0-0-0-|
-----------------------|--3-3--3--3-3--3-3-3-3-|-----------------------|



-----------------------|-----------------------|-----------------------|
-----------------------|-----------------------|-----------------------|
-----------------------|-----------------------|-----------------------|
-----------------------|--5-5--5--5-5--5-5-5-5-|-----------------------|
--3-3--3--3-3--3-3-3-3-|--3-3--3--3-3--3-3-3-3-|--5-5--5--5-5--5-5-5-5-|
--1-1--1--1-1--1-1-1-1-|-----------------------|--3-3--3--3-3--3-3-3-3-|



-----------------------|-----------------------|--0-0--0--0-0-0--0--0-|
-----------------------|-----------------------|--0-0--0--0-0-0--0--0-|
-----------------------|-----------------------|--1-1--1--1-2-2--2--2-|
-----------------------|--2-2--2--2-2--2-2-2-2-|--2-2--2--2-2-2--2--2-|
--3-3--3--3-3--3-3-3-3-|--0-0--0--0-0--0-0-0-0-|--2-2--2--2-2-2--2--2-|
--1-1--1--1-1--1-1-1-1-|-----------------------|--0-0--0--0-0----0--0-|


--0------------|----------------|--------------------|------------------|
--0------------|----------------|--------------------|------------------|
--1------------|--14------------|--12/14/12----------|--9/10/9----------|
--2------------|----------------|--------------------|------------------|
--2------------|----------------|--------------------|------------------|
--0------------|----------------|--------------------|------------------|


-17-13----------13-17-13----------------------13-17-13----9---8---------------|
----------------------------------------------------------24----5-------------|
-------15-14-15----------15-14----------14-15-------------7-------0-----------|
-------------------------------15-14-15-------------------3--------11tr19-----|
----------------------------------------------------------5-------------(0)---|
----------------------------------------------------------1----------------7~-|


------------------------|---------------|--------------------|
------------------------|---------------|--------------------|
-----7-9-10-12--10--9-7-|--5------------|--4r-4--------------|
------------------------|---------------|-------7---5h7------|
------------------------|---------------|---------7----------|
------------------------|---------------|--------------------|



------17----15/17/15----17----19/20h|--19---17-------------|
------------------------------------|-----------20---------|
---14----14----------14----14-------|--------------19------|
------------------------------------|----------------------|
------------------------------------|----------------------|
------------------------------------|----------------------|



------17----15/17/15----17----19/20h|--19--17-19-20--20b--20-19-17-|
------------------------------------|------------------------------|
---14----14----------14----14-------|------------------------------|
------------------------------------|------------------------------|
------------------------------------|------------------------------|
------------------------------------|------------------------------|



----------------|--------------------------|--13---13---12---12---|
--20b-----------|--17r-17-15----15-17------|--10b--10b--15b--15b--|
----------------|------------17------------|----------------------|
----------------|--------------------------|----------------------|
----------------|--------------------------|----------------------|
----------------|--------------------------|----------------------|



--12h13h12-------------------------------------|----------------------|
-----------15-13-12-13-12h13h12----------------|----------------------|
--------------------------------14-13-------13-|--14------12----------|
--------------------------------------15-14----|--------------14------|
-----------------------------------------------|------------------15--|
-----------------------------------------------|----------------------|



------------------------------|-----------------------------------------|
------------------------------|-----------------------------------------|
--16b-16h14----14-14----------|--14-----14-17-17-14--19h20h19h17h19-7h8h|
------------17--------16------|------17---------------------------------|
--------------------------17--|-----------------------------------------|
------------------------------|-----------------------------------------|



------------------------------|----------------------|----------------------|
--------------------20b-------|----------------------|----------------------|
--7h5h7-19h20h19h17-----------|--15------14----------|--17------16--14------|
------------------------------|--------------15------|------------------17--|
------------------------------|------------------15--|----------------------|
------------------------------|----------------------|----------------------|



----------------------|-------------------|-----------------------|
----------------------|--6----6----7------|-----------------------|
--7----7----9----9----|--5----5----6------|-----------------------|
--7----7----9----9----|-----0----0--------|--2-2--2--2-2--2-2-2-2-|
-----5----5----5----5-|-------------------|--0-0--0--0-0--0-0-0-0-|
----------------------|-------------------|-----------------------|



-----------------------|-----------------------|-----------------------|
-----------------------|-----------------------|-----------------------|
-----------------------|-----------------------|-----------------------|
-----------------------|--5-5--5--5-5--5-5-5-5-|-----------------------|
--3-3--3--3-3--3-3-3-3-|--3-3--3--3-3--3-3-3-3-|--5-5--5--5-5--5-5-5-5-|
--1-1--1--1-1--1-1-1-1-|-----------------------|--3-3--3--3-3--3-3-3-3-|



-----------------------|-----------------------|-----------------------|
-----------------------|-----------------------|-----------------------|
-----------------------|-----------------------|-----------------------|
--2-2--2--2-2--2-2-2-2-|-----------------------|--5-5--5--5-5--5-5-5-5-|
--0-0--0--0-0--0-0-0-0-|--3-3--3--3-3--3-3-3-3-|--3-3--3--3-3--3-3-3-3-|
-----------------------|--1-1--1--1-1--1-1-1-1-|-----------------------|



-----------------------|-----------------------|-----------------------|
-----------------------|-----------------------|-----------------------|
-----------------------|-----------------------|-----------------------|
-----------------------|--4-4--4--4-4--4-4-4-4-|-----------------------|
--5-5--5--5-5--5-5-5-5-|--2-2--2--2-2--2-2-2-2-|--5-5--5--5-5--5-5-5-5-|
--3-3--3--3-3--3-3-3-3-|-----------------------|--3-3--3--3-3--3-3-3-3-|


 (solo 4 here 4:16)
-----------------------|-----------------------|-----------------------|
-----------------------|-----------------------|-----------------------|
-----------------------|-----------------------|-----------------------|
--7-7--7--7-7--7-7-7-7-|-----------------------|-----------------------|
--5-5--5--5-5--5-5-5-5-|--7-7--7--7-7--7-7-7-7-|--5-5--5--5-5--5-5-5-5-|
-----------------------|--5-5--5--5-5--5-5-5-5-|--3-3--3--3-3--3-3-3-3-|



-----------------------|-----------------------|
-----------------------|-----------------------|
-----------------------|-----------------------|
--4-4--4--4-4--4-4-4-4-|-----------------------|
--2-2--2--2-2--2-2-2-2-|--4-4--4--4-4--4-4-4-4-|
-----------------------|--2-2--2--2-2--2-2-2-2-|



------------------------------------------------------9-10-9-------|
------------------------------------------------10-12--------12-10-|
----------------------------------------9-11-12--------------------|
------------------9-11-12-11-9----11-12----------------------------|
----------9-10-12--------------12----------------------------------|
--9-10-12----------------------------------------------------------|



-------------------------|--------------------|
--10b-----10b10h7---7-10-|--------------------|
------------------9------|--9r-9---7---7------|
-------------------------|-----------9--------|
-------------------------|--------------------|
-------------------------|--------------------|



-----------------------17-14-------------|--14-------17-------14b---------|
--14h15h14----14-15----------15-17-14-15-|-----15-------15----------17h15-|
-----------16-------14-------------------|--------14-------14-------------|
-----------------------------------------|--------------------------------|
-----------------------------------------|--------------------------------|
-----------------------------------------|--------------------------------|



--19-17h19h17/14----14h17-------------------|----------------------------|
-----------------17-------19-15-17----15----|--15-14----14---------------|
-----------------------------------16----16-|--------16----16-14/11------|
--------------------------------------------|----------------------------|
--------------------------------------------|----------------------------|
--------------------------------------------|----------------------------|



--9h10h9h7----------------------|----------------------|
-----------10-7---7-------------|----------------------|
----------------9---9r7---9---7-|----------------------|
------------------------9---9---|--9-7-----------------|
--------------------------------|------9-7-------------|
--------------------------------|----------5/7/5-----7-|



-----------------------------------------------------------------------|
--------------------------------------------------------------12-14-15-|
-----------------------------------11----------------11-12-14----------|
------------------9-11-12-11-12-14----14-12-11-12-14-------------------|
----------9-10-12------------------------------------------------------|
--9-10-12--------------------------------------------------------------|



--17--14------------------14-|--14-10/9-10h9----------------------|
---------17b-17-15-17--------|---------------10----10-12----10----|
-----------------------------|------------------11-------11----10-|
-----------------------------|------------------------------------|
-----------------------------|------------------------------------|
-----------------------------|------------------------------------|



---------------------|--------------7-9-|--10-9-7----7-9-14------|
---------------------|--10b-------------|---------10-------------|
--9-7---9---7--------|------------------|------------------------|
------9---9---7------|------------------|------------------------|
---------------------|------------------|------------------------|
---------------------|------------------|------------------------|



--19h14-------------------------------|
--------17-14----14-17-14-------------|
--------------16----------16-15-------|
--------------------------------17-16-|
--------------------------------------|
--------------------------------------|



--18-14----------------------------------------15-17-19-|--17b-----19--17--14--|
--------17-14-------------------------15-17-19----------|----------------------|
--------------15-------------14-16-18-------------------|----------------------|
-----------------17-16-17-16----------------------------|----------------------|
--------------------------------------------------------|----------------------|
--------------------------------------------------------|----------------------|



--21r-----21--------|--22----21----19------------|
-----------------19-|-----19----19----19-22b-----|
--------------------|----------------------------|
--------------------|----------------------------|
--------------------|----------------------------|
--------------------|----------------------------|



--21----19/17-19h17-------------------|------------------------------|
-----22-------------22/19h17-19/17h15-|--17b---17h15-17-----15h17h15-|
--------------------------------------|------------------------------|
--------------------------------------|------------------------------|
--------------------------------------|------------------------------|
--------------------------------------|------------------------------|



----------------------------|
-----14-15------------------|
--16-------16-14-16-11------|
----------------------------|
----------------------------|
----------------------------|



--14h10----10-------12----17h14----14----------------------------------------10-
--------14----14h15----14-------17----15-14-------12-15-------------------12----
--------------------------------------------16-14-------14/13----13-11h13-------
--------------------------------------------------------------16----------------
--------------------------------------------------------------------------------
--------------------------------------------------------------------------------



--14-10-12-14-17t14-12-10-17t14-17t14-12-10-17t14-12-10-17t14-17t14-12-10/|
--------------------------------------------------------------------------|
--------------------------------------------------------------------------|
--------------------------------------------------------------------------|
--------------------------------------------------------------------------|
--------------------------------------------------------------------------|



--17-------14----14/12-12-|--12-7-7-9--10h9h7---------|
--------------17----------|-------------------10b-----|
--------------------------|---------------------------|
--------------------------|---------------------------|
--------------------------|---------------------------|
--------------------------|---------------------------|



--9-10-9-7--------------------|---------------------|
-----------10-7---------------|---------------------|
----------------9-9b9-7---9---|--7/4----------------|
------------------------9---9-|------7h4/2/4-7------|
------------------------------|---------------------|
------------------------------|---------------------|



--10-10-10-10--10-10-10----10--10-10-10-10--10-10-10-10-----10-10-10-10-|---||
--10-------10--10----10----10--10-----------10-------10-----10-------10-|---||
--10-------10--10----10----10--10----10-10--10-10-10-10-----10-10-10-10-|---||
--10-10-10-10--10----10----10--10-------10--10----10--------10-------10-|---||
--10-------10--10----10----10--10-------10--10-------10-----10-------10-|---||
--10-------10--10----10-10-10--10-10-10-10--10----------10--10-------10-|---||


Angra albums
2005 Temple of Shadows
2002 Hunters and Prey
2001 Rebirth
1998 Fireworks
1996 Holy Land
1993 Angels Cry
1992 Reaching Horizons
Rebirth tabs
01In Excelsis tabbass tab
02Nova Era tabbass tab
03Millennium Sun tabbass tab
04Acid Rain tabbass tab
05Heroes of Sand tabbass tab
07Rebirth tabbass tab
10Visions Prelude tabbass tab

 

1