Search tabs:
Browse artists: 0-9 | A | B | C | D | E | F | G | H | I | J | K | L | M | N | O | P | Q | R | S | T | U | V | W | X | Y | Z
/ Angra / Temple of Shadows (2005) / The Temple of Hate guitar tab

Angra - Temple of hate

E||--------------------------------------------------|
B||--------------------------------------------------|
G||-------------9--11--12--11h12p11p9----------------|
D||--9--10--12------------------------12--10--9------|
A||----------------------------------------------12--|
E||--------------------------------------------------|



--------------------------------------------------|
--------------------------------------------------|
-------------9--11--12--11h12p11p9----------------|
--9--10--12------------------------12--10--9------|
----------------------------------------------12--|
--------------------------------------------------|



-------------------------------------------------|
-------------------------------------------------|
-----------------------------11----------11--12--|
---------10--13------10--13------10--13----------|
--9--12----------12------------------------------|
-------------------------------------------------|



----------------------------------------------|
--------------------------------------12------|
--14--12--11----------------------11----------|
--------------14--12--10------13--------------|
--------------------------14------------------|
----------------------------------------------|



--------------------------------------------------|
--------------------------------------------------|
-------------9--11--12--11h12p11p9----------------|
--9--10--12------------------------12--10--9------|
----------------------------------------------12--|
--------------------------------------------------|



--------------------------------------------------|
--------------------------------------------------|
-------------9--11--12--11h12p11p9----------------|
--9--10--12------------------------12--10--9------|
----------------------------------------------12--|
--------------------------------------------------|



-------------------------------------------------|
-------------------------------------------------|
-----------------------------11--14----------11--|
---------10--13------10--13----------10--13------|
--9--12----------12------------------------------|
-------------------------------------------------|



----------11--14--11--------------11--17------|-----------------------|
------13--------------13------13--------------|-----------10----12----|
--14----------------------14------------------|------9----------------|
----------------------------------------------|-----------------------|
----------------------------------------------|-----------------------|
----------------------------------------------|-----------------------|



------------------------|----------------------|----------------------|
--12r-------10----------|----------------------|----------------------|
------------------12----|--11--------12r-------|--11------------------|
------------------------|----------------------|------------13--------|
------------------------|----------------------|----------------------|
------------------------|----------------------|----------------------|



--------------------------------------------------|
--------------------------------------------------|
-------------9--11--12--11h12p11p9----------------|
--9--10--12------------------------12--10--9------|
----------------------------------------------12--|
--------------------------------------------------|



--------------------------------------------------|-------------------------|
--------------------------------------------------|-------------10----12----|
-------------9--11--13--11h13p11p9----------------|--------9----------------|
--9--10--12------------------------12--10--9------|--10---------------------|
----------------------------------------------12--|-------------------------|
--------------------------------------------------|-------------------------|



------------------------|----------------------|--11--------14--------|
--12r-------10----------|------------12--------|----------------------|
------------------12----|--11------------------|----------------------|
------------------------|----------------------|----------------------|
------------------------|----------------------|----------------------|
------------------------|----------------------|----------------------|



---------------------8h12h15p12p8------------|
---------------------------------------------|
-----9h12p9h12h17p12--------------12h17p12p9-|
--10-----------------------------------------|
---------------------------------------------|
---------------------------------------------|



-----------------------10h14h17p14p10-------------|
--------------------------------------------------|
-----11h14p11h14h19p14----------------14h19p14p11-|
--12----------------------------------------------|
--------------------------------------------------|
--------------------------------------------------|



-----------------------------------17----------------17/20-|
--------------16-19----------16-19----19-16----16-19-------|
--------14-17----------14-17----------------17-------------|
--13-16-------------16-------------------------------------|
-----------------------------------------------------------|
-----------------------------------------------------------|



-----19-17-15-------------------------------|
--------------19-17-19-17-15----------------|
-----------------------------17-16-14-------|
--------------------------------------17-16-|
--------------------------------------------|
--------------------------------------------|



--------------12--14--15--14h15p14p12-----------------|
----------15--------------------------15--13--12------|
------16------------------------------------------14--|
--14--------------------------------------------------|
------------------------------------------------------|
------------------------------------------------------|



------------------------------|------------------------------|
------------------------------|--------12-----10------8--10--|
------------------------------|--9--9------9------9-9--------|
--14--------------------------|------------------------------|
----------------14------------|------------------------------|
------------------------------|------------------------------|



----------------------------|---------------------------------|
----------------------------|-----------------------------10--|
--11--7-----7--11--7-----7--|--12---------11--12--11--12------|
---------9------------9-----|------9--12----------------------|
----------------------------|---------------------------------|
----------------------------|---------------------------------|



-------------------------------|------------------------------|
--12--------12p-10-----10h-12--|--------12-----10------8--10--|
------9--9----------9----------|--9--9------9------9-9--------|
-------------------------------|------------------------------|
-------------------------------|------------------------------|
-------------------------------|------------------------------|



----------------------------|---------------------------------|
----------------------------|-----------------------------10--|
--11--7-----7--11--7-----7--|--12---------11--12--11--12------|
---------9------------9-----|------9--12----------------------|
----------------------------|---------------------------------|
----------------------------|---------------------------------|



------------10/-7-----7/-12--|------------------------------|
--12-------------------------|--12------------12------------|
------9--9---------9---------|------9-9-8--9------9-9-8--9--|
-----------------------------|------------------------------|
-----------------------------|------------------------------|
-----------------------------|------------------------------|



------------------------------|------------------------------|
--12------------12------------|--10------------10------------|
------9-9-8--9------9-9-8--9--|------9-9-8--9------9-9-8--9--|
------------------------------|------------------------------|
------------------------------|------------------------------|
------------------------------|------------------------------|



------------------------------|----------------------------|
--10------------10------------|--8------------8------------|
------9-9-8--9------9-9-8--9--|-----9-9-8--9-----9-9-8--9--|
------------------------------|----------------------------|
------------------------------|----------------------------|
------------------------------|----------------------------|



----------------------------|------------------------------------------|
--8------------8------------|--13--------12--------13--------15--------|
-----9-9-8--9-----9-9-8--9--|------------------------------------------|
----------------------------|------10-10-----10-10-----10-10-----10-10-|
----------------------------|------------------------------------------|
----------------------------|------------------------------------------|



----------------------12--------14--------|--14b---------------|
--13--------15----------------------------|--------------------|
------------------------------------------|--------------------|
------10-10-----10-10-----10-10-----10-10-|--------------------|
------------------------------------------|--------------------|
------------------------------------------|--------------------|



------------------|-----------------------------|-----------------------------|
------------------|-----------------------------|-----------------------------|
------------------|-----------------------------|-----------------------------|
------------------|-----------------------------|-----------------------------|
------------------|-----------------------------|-----------------------------|
------------------|--0--0--0-0-0--0-0-0--0-0-0--|--0-0-0--0--0-0-0--0--0-0-0--|



-------------------|------------------------------|
-------------------|------------------------------|
-------------------|------------------------------|
--7----------------|------7------7------7------7--|
--5----------------|--4-4-4--4-4-4--5-5-5--5-5-5--|
-------------------|------------------------------|



-----------------------------|-----------------------------|-------------------|
-----------------------------|-----------------------------|-------------------|
-----------------------------|-----------------------------|-------------------|
-----------------------------|-----------------------------|--5----------------|
-----------------------------|-----------------------------|--3----------------|
--0--0--0-0-0--0-0-0--0-0-0--|--0-0-0--0--0-0-0--0--0-0-0--|-------------------|



--------------------|-----------------------------|
--------------------|-----------------------------|
--------------------|-----------------------------|
--2--------7--------|-----------------------------|
--0--------5--------|-----------------------------|
--0--------5--------|--0--0--0-0-0--0-0-0--0-0-0--|



-----------------------------|-------------------|----------------------------|
-----------------------------|-------------------|----------------------------|
-----------------------------|-------------------|----------------------------|
-----------------------------|--7----------------|----------7------------7----|
-----------------------------|--5----------------|--4-4-4-4-4----5-5-5-5-5----|
--0-0-0--0--0-0-0--0--0-0-0--|-------------------|----------------------------|



-----------------------------|-----------------------------|-------------------|
-----------------------------|-----------------------------|-------------------|
-----------------------------|-----------------------------|-------------------|
-----------------------------|-----------------------------|--5----------------|
-----------------------------|-----------------------------|--3----------------|
--0--0--0-0-0--0-0-0--0-0-0--|--0-0-0--0--0-0-0--0--0-0-0--|-------------------|



----------------------------------|-------------------|------------------|
----------------------------------|-------------------|------------------|
----------------------------------|-------------------|------------------|
----------------------------------|--7----------------|------------------|
--5-5-5-5-5-5-5-5-5-5-5-5-5-5-5-5-|--7----------------|------------------|
----------------------------------|--5----------------|------------------|



-------------------|-------------------|----------------------------|
-------------------|-------------------|----------------------------|
-------------------|-------------------|----------------------------|
--5----------------|--4----------------|--------9-----10------9--7--|
--5----------------|--2----------------|--7--7-----7------7-7-------|
--3----------------|-------------------|----------------------------|



--------------------------|---------------------------|
--------------------------|---------------------------|
--------------------------|---------------------------|
-----5--4-----------4-----|--------4-----5------4-----|
--3--------5-----------7--|--5--5-----5-----5-5----5--|
--------------3--3--------|---------------------------|



----------------------------|-----------------------------|
----------------------------|-----------------------------|
----------------------------|-----------------------------|
--------9------------12-----|-----------------------------|
-----7-----------10---------|-----------------------------|
--5--------5--8----------8--|--0--0--0-0-0--0-0-0--0-0-0--|



-----------------------------|-------------------|
-----------------------------|-------------------|
-----------------------------|-------------------|
-----------------------------|--7----------------|
-----------------------------|--5----------------|
--0-0-0--0--0-0-0--0--0-0-0--|-------------------|



------------------------------|-----------------------------|
------------------------------|-----------------------------|
------------------------------|-----------------------------|
------7------7------7------7--|-----------------------------|
--4-4-4--4-4-4--5-5-5--5-5-5--|-----------------------------|
------------------------------|--0--0--0-0-0--0-0-0--0-0-0--|



-----------------------------|-------------------|--------------------|
-----------------------------|-------------------|--------------------|
-----------------------------|-------------------|--------------------|
-----------------------------|--5----------------|--2--------7--------|
-----------------------------|--3----------------|--0--------5--------|
--0-0-0--0--0-0-0--0--0-0-0--|-------------------|--0--------5--------|



-----------------------------|-----------------------------|-------------------|
-----------------------------|-----------------------------|-------------------|
-----------------------------|-----------------------------|-------------------|
-----------------------------|-----------------------------|--7----------------|
-----------------------------|-----------------------------|--5----------------|
--0--0--0-0-0--0-0-0--0-0-0--|--0-0-0--0--0-0-0--0--0-0-0--|-------------------|



----------------------------|-----------------------------|
----------------------------|-----------------------------|
----------------------------|-----------------------------|
----------7------------7----|-----------------------------|
--4-4-4-4-4----5-5-5-5-5----|-----------------------------|
----------------------------|--0--0--0-0-0--0-0-0--0-0-0--|



-----------------------------|----------------------------------|
-----------------------------|----------------------------------|
-----------------------------|----------------------------------|
-----------------------------|----------------------------------|
-----------------------------|--3-3-3-3-3-3-3-3-3-3-3-3-3-3-3-3-|
--0-0-0--0--0-0-0--0--0-0-0--|----------------------------------|



----------------------------------|-------------------|------------------|
----------------------------------|-------------------|------------------|
----------------------------------|-------------------|------------------|
----------------------------------|--7----------------|------------------|
--5-5-5-5-5-5-5-5-5-5-5-5-5-5-5-5-|--7----------------|------------------|
----------------------------------|--5----------------|------------------|



-------------------|-------------------|-------------------|------------------|
-------------------|-------------------|-------------------|------------------|
-------------------|-------------------|-------------------|------------------|
--5----------------|--2----------------|--4----------------|------------------|
--5----------------|--2----------------|--2----------------|------------------|
--3----------------|--0----------------|-------------------|------------------|



----------------------------------|----------------------------------|
----------------------------------|----------------------------------|
----------------------------------|----------------------------------|
----------------------------------|----------------------------------|
--3-3-3-3-3-3-3-3-3-3-3-3-3-3-3-3-|--5-5-5-5-5-5-5-5-5-5-5-5-5-5-5-5-|
----------------------------------|----------------------------------|



-------------------|------------------|-------------------|--------------------|
-------------------|------------------|-------------------|--------------------|
-------------------|------------------|-------------------|--------------------|
--5----------------|------------------|--5----------------|--5-----------------|
--5----------------|------------------|--3----------------|--3--------2--------|
--3----------------|------------------|-------------------|--------------------|



-------------------|------------------|-------------------|-------------------|
-------------------|------------------|-------------------|-------------------|
-------------------|------------------|-------------------|-------------------|
--7----------------|------------------|--7----------------|-------------------|
--7----------------|------------------|--5----------------|--3----------------|
--5----------------|------------------|-------------------|-------------------|



----------------------------------|----------------------------------|
----------------------------------|----------------------------------|
----------------------------------|----------------------------------|
----------------------------------|----------------------------------|
--2-2-2-2-2-2-2-2-2-2-2-2-2-2-2-2-|--2-2-2-2-2-2-2-2-2-2-2-2-2-2-2-2-|
----------------------------------|----------------------------------|



----------------------------------|----------------------------------|
----------------------------------|----------------------------------|
----------------------------------|----------------------------------|
----------------------------------|----------------------------------|
--7-7-7-7-7-7-7-7-7-7-7-7-7-7-7-7-|--5-5-5-5-5-5-5-5-5-5-5-5-5-5-5-5-|
----------------------------------|----------------------------------|



--------------------------------------|--------------------------------------|
--------------------------------------|--------------------------------------|
--------------------------------------|--------------------------------------|
--------------------------------------|--------------------------------------|
--3--2--3--2--3--2--3--2--3--2--3--2--|--3--2--3--2--3--2--3--2--3--2--3--2--|
--3--2--3--2--3--2--3--2--3--2--3--2--|--3--2--3--2--3--2--3--2--3--2--3--2--|



--------------------------------|-------------------|
--------------------------------|-------------------|
--------------------------------|-------------------|
--7--------------7--------------|--7/---------------|
--5----5----5----5----5----5----|--5/---------------|
--5----5----5----5----5----5----|--5/---------------|



----------------------------|--------------------------|
----------------------------|--------------------------|
----------------------------|--------------------------|
--------9-----10------9--7--|-----5--4-----------4-----|
--7--7-----7------7-7-------|--3--------5-----------7--|
----------------------------|--------------3--3--------|



---------------------------|----------------------------|
---------------------------|----------------------------|
---------------------------|----------------------------|
--------4-----5------4-----|--------9------------12-----|
--5--5-----5-----5-5----5--|-----7-----------10---------|
---------------------------|--5--------5--8----------8--|



----------------------------|--------------------------|
----------------------------|--------------------------|
----------------------------|--------------------------|
--------9-----10------9--7--|-----5--4-----------4-----|
--7--7-----7------7-7-------|--3--------5-----------7--|
----------------------------|--------------3--3--------|



---------------------------|----------------------------|
---------------------------|----------------------------|
---------------------------|----------------------------|
--------4-----5------4-----|--------9------------12-----|
--5--5-----5-----5-5----5--|-----7-----------10---------|
---------------------------|--5--------5--8----------8--|



--------------------------------------------------|---------------------|
--------------------------------------------------|---------------------|
-------------9--11--12--11h12p11p9----------------|---------------------|
--9--10--12------------------------12--10--9------|---------------------|
----------------------------------------------12--|---------------------|
--------------------------------------------------|--12--------7--------|



------------------|------------------|--8p7h8p7p3p0h8p7h8p7p3p0h8p7p3p0-|
------------------|------------------|----------------------------------|
------------------|------------------|----------------------------------|
------------------|------------------|----------------------------------|
------------------|------------------|----------------------------------|
------------------|------------------|----------------------------------|



--8p7h8p7p3p0h8p7h8p7p3p0h8p7p3p0-|--7p5h7p5p2p0h7p5h7p5p2p0h7p5p2p0-|
----------------------------------|----------------------------------|
----------------------------------|----------------------------------|
----------------------------------|----------------------------------|
----------------------------------|----------------------------------|
----------------------------------|----------------------------------|



--7p5h7p5p2p0h7p5h7p5p2p0h7p5p2p0-|--10p8h10p8p5p0h10p8h10p8p5p0h10p8p5p0-|
----------------------------------|---------------------------------------|
----------------------------------|---------------------------------------|
----------------------------------|---------------------------------------|
----------------------------------|---------------------------------------|
----------------------------------|---------------------------------------|



--10p8h10p8p5p0h10p8h10p8p5p0h10p8p5p0-|--12p7h12p7p3p0h12p7h12p7p3p0h12p7p3p0-|
---------------------------------------|---------------------------------------|
---------------------------------------|---------------------------------------|
---------------------------------------|---------------------------------------|
---------------------------------------|---------------------------------------|
---------------------------------------|---------------------------------------|



--12p7h12p7p3p0h12p7h12p7p3p0h12p7p3p0-|
---------------------------------------|
---------------------------------------|
---------------------------------------|
---------------------------------------|
---------------------------------------|



--15p12p10h15p12p10p8h10h12h15p12p10h15p12p10p8h10h12h15p12p10p8h10h12-|
-----------------------------------------------------------------------|
-----------------------------------------------------------------------|
-----------------------------------------------------------------------|
-----------------------------------------------------------------------|
-----------------------------------------------------------------------|



--15p12p10h15p12p10p8h10h12h15p12p10h15p12p10p8h10h12h15p12p10p8h10h12-|
-----------------------------------------------------------------------|
-----------------------------------------------------------------------|
-----------------------------------------------------------------------|
-----------------------------------------------------------------------|
-----------------------------------------------------------------------|



--14p10p8h14p10p8p7h8h10h14p10p8h14p10p8p7h8h10h14p10p8p7h8h10-|
---------------------------------------------------------------|
---------------------------------------------------------------|
---------------------------------------------------------------|
---------------------------------------------------------------|
---------------------------------------------------------------|



--14p10p8h14p10p8p7h8h10h14p10p8h14p10p8p7h8h10h14p10p8p7h8h10-|
---------------------------------------------------------------|
---------------------------------------------------------------|
---------------------------------------------------------------|
---------------------------------------------------------------|
---------------------------------------------------------------|



--17p14p12h17p14p12p10h12h14h17p14p12h17p14p12p10h12h14h17p14p12p10h12h14-|
--------------------------------------------------------------------------|
--------------------------------------------------------------------------|
--------------------------------------------------------------------------|
--------------------------------------------------------------------------|
--------------------------------------------------------------------------|



--19p14p12h19p14p12p11h12h14h19p14p12h19p14p12p11h12h14h19p14p12p11h12h14-|
--------------------------------------------------------------------------|
--------------------------------------------------------------------------|
--------------------------------------------------------------------------|
--------------------------------------------------------------------------|
--------------------------------------------------------------------------|



--17h19p17p15h17p15-------------------------------------------|
--------------------17h20p17p15h17p15-------------------------|
--------------------------------------16h19p16p14h16p14-------|
--------------------------------------------------------17h19p|
--------------------------------------------------------------|
--------------------------------------------------------------|



-------------------------------------------------------|------------------|
-------------------------------------------------------|------------------|
-------------------------------------------------------|------------------|
--17p14h17p14------------------------------------------|------------------|
--------------17h19p17p14h17p14------------------------|------------------|
--------------------------------17h19p18p17p15-14-12/--|------------------|



------------------|------------------|--------------------------|
------------------|------------------|--------------------------|
------------------|------------------|--------------------------|
------------------|------------------|--7--8--x--5--x--7--x--8--|
------------------|------------------|--5--6--x--3--x--5--x--6--|
------------------|------------------|--5--6-----3-----5-----6--|



----------------------------|------------------------------|
----------------------------|------------------------------|
----------------------------|------------------------------|
--------5-------------------|--------5-----5-4-3-----------|
----------------------------|--------------------5-4-3-----|
--3--3-----3--3--3--2-2-2-2-|--3--3-----3--------------6-5-|



----------------------------|--------------------------|-------------------|
----------------------------|--------------------------|-------------------|
----------------------------|--------------------------|-------------------|
--------5-------------------|--7--8--x--5--x--7--x--8--|--5----------------|
----------------------------|--5--6--x--3--x--5--x--6--|--3----------------|
--3--3-----3--3--3--2-2-2-2-|--5--6-----3-----5-----6--|--3----------------|



------------------|-------------------|------------------|-------------------|
------------------|-------------------|------------------|-------------------|
------------------|-------------------|------------------|-------------------|
------------------|--5----------------|------------------|--8----------------|
------------------|--5----------------|------------------|--8----------------|
------------------|--3----------------|------------------|--6----------------|



------------------|-------------------|------------------|
------------------|-------------------|------------------|
------------------|-------------------|------------------|
------------------|--3----------------|------------------|
------------------|--3----------------|------------------|
------------------|--1----------------|------------------|



----------------------------|------------------------------|
----------------------------|------------------------------|
----------------------------|------------------------------|
--------5-------------------|--------5-----5-4-3-----------|
----------------------------|--------------------6-5-3-----|
--3--3-----3--3--3--2-2-2-2-|--3--3-----3--------------6-5-|



----------------------------|--------------------------|
----------------------------|--------------------------|
----------------------------|--------------------------|
--------5-------------------|--7--8--x--5--x--7--x--8--|
----------------------------|--5--6--x--3--x--5--x--6--|
--3--3-----3--3--3--2-2-2-2-|--5--6-----3-----5-----6--|



------------------------------------------------|
-------------8-11-------------11-13-------------|
----------10---------------12----------------15-|
--8-10-13---------10-13-15----------13-15-17----|
------------------------------------------------|
------------------------------------------------|



-----------------11-13-15----------13-15-18-------|
--13-16-------13----------------16----------------|
--------12-15-------------15-17-------------17-20-|
--------------------------------------------------|
--------------------------------------------------|
--------------------------------------------------|



-----15-18-20/22----18-17-15----------------|
--18-------------------------19-17-13-14-15-|
--------------------------------------------|
--------------------------------------------|
--------------------------------------------|
--------------------------------------------|



---------------------------------------|
--18h20p18-17----------------18b-------|
--------------20-19-17-----------------|
-----------------------20-19-----------|
---------------------------------------|
---------------------------------------|



--18-17-16-15----15-16-17-------------------------|
--------------19----------20-19-18-17-19-18-14-15-|
--------------------------------------------------|
--------------------------------------------------|
--------------------------------------------------|
--------------------------------------------------|



--------------------------------------------------------|
--16-17-16-15-14----15-14-------------------------------|
-----------------17-------17-16-15-16-17h18p17p15-------|
--------------------------------------------------17-15-|
--------------------------------------------------------|
--------------------------------------------------------|



--14-10-14-10-------14-10-14-10-------14-10-------|
--------------13-10-------------13-10-------13-10-|
--------------------------------------------------|
--------------------------------------------------|
--------------------------------------------------|
--------------------------------------------------|



--15-10-15-10-------15-10-15-10-------15-10-------|
--------------13-10-------------13-10-------13-10-|
--------------------------------------------------|
--------------------------------------------------|
--------------------------------------------------|
--------------------------------------------------|



--17-14-17-14-------17-14-17-14-------17-14-------|
--------------15-13-------------15-13-------15-13-|
--------------------------------------------------|
--------------------------------------------------|
--------------------------------------------------|
--------------------------------------------------|



--20-17-20-17-------20-17-20-17-------23-20-------|--24~---------------|
--------------19-15-------------19-15-------22-19-|--------------------|
--------------------------------------------------|--------------------|
--------------------------------------------------|--------------------|
--------------------------------------------------|--------------------|
--------------------------------------------------|--------------------|



------------------|------------------|------------------|------------------|
------------------|------------------|------------------|------------------|
------------------|------------------|------------------|------------------|
------------------|------------------|------------------|------------------|
------------------|------------------|------------------|------------------|
------------------|------------------|------------------|------------------|



------------------|------------------|------------------|-------------------|
------------------|------------------|------------------|-------------------|
------------------|------------------|------------------|-------------------|
------------------|------------------|------------------|--2----------------|
------------------|------------------|------------------|--2----------------|
------------------|------------------|------------------|--0----------------|



------------------|------------------|-------------------------|
------------------|------------------|-------------------------|
------------------|------------------|-------------------------|
------------------|------------------|-------------------------|
------------------|------------------|----3--2--3--5--3--7--5--|
------------------|------------------|----3--2--3--5--3--7--5--|



--------------------|-------------------|-------------------|
--------------------|-------------------|-------------------|
--------------------|-------------------|-------------------|
--9-----------------|-------------------|--5----------------|
--7------------2----|--5----------------|--3----------------|
--7------------0----|--2----------------|-------------------|



-------------------------|--------------------|-------------------|
-------------------------|--------------------|-------------------|
-------------------------|--------------------|-------------------|
-------------------------|--9------------2----|--4----------------|
----3--2--3--5--3--7--5--|--7------------2----|--5----------------|
----3--2--3--5--3--7--5--|--7------------0----|--2----------------|



---------------------|----------------------------------|
---------------------|----------------------------------|
---------------------|----------------------------------|
----4----4--4--------|----------------------------------|
----2----2--2--------|--3-3-3-3-3-3-3-3-5-5-5-5-5-5-5-5-|
----2----2--2--------|----------------------------------|



----------------------------------|----------------------------------|
----------------------------------|----------------------------------|
----------------------------------|----------------------------------|
----------------------------------|----------------------------------|
----------------------------------|--5-5-5-5-5-5-5-5-5-5-5-5-5-5-5-5-|
--3-3-3-3-3-3-3-3-3-3-3-3-3-3-3-3-|----------------------------------|



----------------------------------|----------------------------------|
----------------------------------|----------------------------------|
----------------------------------|----------------------------------|
----------------------------------|----------------------------------|
--3-3-3-3-3-3-3-3-3-3-3-3-3-3-3-3-|----------------------------------|
----------------------------------|--0-0-0-0-0-0-0-0-0-0-0-0-0-0-0-0-|



----------------------------------|----------------------------------|
----------------------------------|----------------------------------|
----------------------------------|----------------------------------|
----------------------------------|----------------------------------|
----------------------------------|--5-5-5-5-5-5-5-5-5-5-5-5-5-5-5-5-|
--3-3-3-3-3-3-3-3-3-3-3-3-3-3-3-3-|----------------------------------|



----------------------------------|----------------------------------|
----------------------------------|----------------------------------|
----------------------------------|----------------------------------|
----------------------------------|----------------------------------|
--2-2-2-2-2-2-2-2-2-2-2-2-2-2-2-2-|--3-3-3-3-3-3-3-3-5-5-5-5-5-5-5-5-|
----------------------------------|----------------------------------|



-------------------|------------------|-------------------|-------------------|
-------------------|------------------|-------------------|-------------------|
-------------------|------------------|-------------------|-------------------|
--7----------------|------------------|--5----------------|--2----------------|
--7----------------|------------------|--5----------------|--2----------------|
--5----------------|------------------|--3----------------|--0----------------|



-------------------|------------------|----------------------------------|
-------------------|------------------|----------------------------------|
-------------------|------------------|----------------------------------|
--4----------------|------------------|----------------------------------|
--2----------------|------------------|--3-3-3-3-3-3-3-3-3-3-3-3-3-3-3-3-|
-------------------|------------------|----------------------------------|



----------------------------------|-------------------|------------------|
----------------------------------|-------------------|------------------|
----------------------------------|-------------------|------------------|
----------------------------------|--5----------------|------------------|
--5-5-5-5-5-5-5-5-5-5-5-5-5-5-5-5-|--5----------------|------------------|
----------------------------------|--3----------------|------------------|



-------------------|--------------------|-------------------|------------------|
-------------------|--------------------|-------------------|------------------|
-------------------|--------------------|-------------------|------------------|
--5----------------|--5-----------------|--7----------------|------------------|
--3----------------|--3--------2--------|--7----------------|------------------|
-------------------|--------------------|--5----------------|------------------|



-------------------|-------------------|----------------------------------|
-------------------|-------------------|----------------------------------|
-------------------|-------------------|----------------------------------|
--7----------------|-------------------|----------------------------------|
--5----------------|--3----------------|--2-2-2-2-2-2-2-2-2-2-2-2-2-2-2-2-|
-------------------|-------------------|----------------------------------|



----------------------------------|----------------------------------|
----------------------------------|----------------------------------|
----------------------------------|----------------------------------|
----------------------------------|----------------------------------|
--2-2-2-2-2-2-2-2-2-2-2-2-2-2-2-2-|--7-7-7-7-7-7-7-7-7-7-7-7-7-7-7-7-|
----------------------------------|----------------------------------|



----------------------------------|--------------------------------------|
----------------------------------|--------------------------------------|
----------------------------------|--------------------------------------|
----------------------------------|--------------------------------------|
--5-5-5-5-5-5-5-5-5-5-5-5-5-5-5-5-|--3--2--3--2--3--2--3--2--3--2--3--2--|
----------------------------------|--3--2--3--2--3--2--3--2--3--2--3--2--|



--------------------------------------|--------------------------------|
--------------------------------------|--------------------------------|
--------------------------------------|--------------------------------|
--------------------------------------|--7--------------7--------------|
--3--2--3--2--3--2--3--2--3--2--3--2--|--5----5----5----5----5----5----|
--3--2--3--2--3--2--3--2--3--2--3--2--|--5----5----5----5----5----5----|



-------------------|----------------------------|--------------------------|
-------------------|----------------------------|--------------------------|
-------------------|----------------------------|--------------------------|
--7/---------------|--------9-----10------9--7--|-----5--4-----------4-----|
--5/---------------|--7--7-----7------7-7-------|--3--------5-----------7--|
--5/---------------|----------------------------|--------------3--3--------|



---------------------------|----------------------------|
---------------------------|----------------------------|
---------------------------|----------------------------|
--------4-----5------4-----|--------9------------12-----|
--5--5-----5-----5-5----5--|-----7-----------10---------|
---------------------------|--5--------5--8----------8--|



----------------------------|--------------------------|
----------------------------|--------------------------|
----------------------------|--------------------------|
--------9-----10------9--7--|-----5--4-----------4-----|
--7--7-----7------7-7-------|--3--------5-----------7--|
----------------------------|--------------3--3--------|



---------------------------|----------------------------|
---------------------------|----------------------------|
---------------------------|----------------------------|
--------4-----5------4-----|--------9------------12-----|
--5--5-----5-----5-5----5--|-----7-----------10---------|
---------------------------|--5--------5--8----------8--|



--------------------------------------------------|---------------------|
--------------------------------------------------|---------------------|
-------------9--11--12--11h12p11p9----------------|---------------------|
--9--10--12------------------------12--10--9------|---------------------|
----------------------------------------------12--|---------------------|
--------------------------------------------------|--12--------7--------|



----------------------------------|------------------------------------------|
----------------------------------|------------------------------------------|
----------------------------------|------------------------------------------|
--2-4-5-2-4-5-4-5-7-4-5-7-5-7-9-5-|--7-9-7-9-10-7-9-10-9-10-12-9-10-12-10-12-|
----------------------------------|------------------------------------------|
----------------------------------|------------------------------------------|



--------------------------------------------------|----------------------|
--------------------------------------------------|----------------------|
--------------------------------------------------|--16--------17--------|
--14-10-12-14-12-14-16-12-14-16-14-16-17-14-16-17-|----------------------|
--------------------------------------------------|----------------------|
--------------------------------------------------|----------------------|



----------------------|--------------------------|--------------------------|
----------------------|--------------------------|--------------------------|
--16--------12--------|--16----------17----------|--16----------12----------|
----------------------|--------------------------|--------------------------|
----------------------|--------------------------|--------------------------|
----------------------|--------------------------|--------------------------|



----------------|----------------|----------------|------------------------|
----------------|----------------|----------------|------------------------|
--16------------|--17------------|--16------------|--16r-------14----12----|
----------------|----------------|----------------|------------------------|
----------------|----------------|----------------|------------------------|
----------------|----------------|----------------|------------------------|



--------------------|--------------------------------|-------------------||
--------------------|--------------------------------|-------------------||
--------------------|----------12-11-9---------------|-------------------||
--14/---------------|------------------12-10-9-------|-------------------||
--------------------|--------------------------12-10-|--7----------------||
--------------------|--------------------------------|-------------------||


                              The Temple Of Hate



Rafael Bittencourt





E||------------------------------------------------|
B||------------8--10--12--10h12p10p8---------------|
G||--7--9--11------------------------11--9--7------|
D||--------------------------------------------10--|
A||------------------------------------------------|
E||------------------------------------------------|



------------------------------------------------|
------------8--10--12--10h12p10p8---------------|
--7--9--11------------------------11--9--7------|
--------------------------------------------10--|
------------------------------------------------|
------------------------------------------------|



--------------------------------------------------|
--------------------------------------------------|
------------------------------14----------14--16--|
----------13--16------13--16------13--16----------|
--12--15----------15------------------------------|
--------------------------------------------------|



----------------------------------------------|
--------------------------------------16------|
--17--16--14----------------------16----------|
--------------17--16--14------16--------------|
--------------------------18------------------|
----------------------------------------------|



------------------------------------------------|
------------8--10--12--10h12p10p8---------------|
--7--9--11------------------------11--9--7------|
--------------------------------------------10--|
------------------------------------------------|
------------------------------------------------|



------------------------------------------------|
------------8--10--12--10h12p10p8---------------|
--7--9--11------------------------11--9--7------|
--------------------------------------------10--|
------------------------------------------------|
------------------------------------------------|



--------------------------------------------------|
--------------------------------------------------|
------------------------------14--17----------14--|
----------13--16------13--16----------13--16------|
--12--15----------15------------------------------|
--------------------------------------------------|



----------14--17--14--------------14--20------|------------------------|
------16--------------16------16--------------|------------13----15----|
--17----------------------17------------------|------12----------------|
----------------------------------------------|------------------------|
----------------------------------------------|------------------------|
----------------------------------------------|------------------------|



------------------------|----------------------|----------------------|
--15r-------13----------|----------------------|----------------------|
------------------16----|--14--------16r-------|--14------------------|
------------------------|----------------------|------------16--------|
------------------------|----------------------|----------------------|
------------------------|----------------------|----------------------|



------------------------------------------------|
------------8--10--12--10h12p10p8---------------|
--7--9--11------------------------11--9--7------|
--------------------------------------------10--|
------------------------------------------------|
------------------------------------------------|



------------------------------------------------|-------------------------|
------------8--10--12--10h12p10p9---------------|-------------13----15----|
--7--9--11------------------------11--9--7------|--9----12----------------|
--------------------------------------------10--|-------------------------|
------------------------------------------------|-------------------------|
------------------------------------------------|-------------------------|



------------------------|----------------------|--14--------17--------|
--15r-------13----------|------------16--------|----------------------|
------------------16----|--14------------------|----------------------|
------------------------|----------------------|----------------------|
------------------------|----------------------|----------------------|
------------------------|----------------------|----------------------|



-----------------------12h15h20p15p12-------------|
--------------------------------------------------|
-----12h17p12h17h21p17----------------17h21p17p12-|
--14----------------------------------------------|
--------------------------------------------------|
--------------------------------------------------|



-----------------------14h17h22p17p14-------------|
--------------------------------------------------|
-----14h19p14h19h23p19----------------19h23p19p14-|
--16----------------------------------------------|
--------------------------------------------------|
--------------------------------------------------|



-----------------------------------20----------------20/23-|
--------------19-22----------19-22----22-19----19-22-------|
--------17-20----------17-20----------------20-------------|
--16-19-------------19-------------------------------------|
-----------------------------------------------------------|
-----------------------------------------------------------|



-----22-20-19-------------------------------|
--------------22-20-22-20-19----------------|
-----------------------------21-19-17-------|
--------------------------------------21-19-|
--------------------------------------------|
--------------------------------------------|



--------------15--17--19--17h19p17p15-----------------|
----------19--------------------------19--17--15------|
------21------------------------------------------17--|
--17--------------------------------------------------|
------------------------------------------------------|
------------------------------------------------------|



------------------------------|------------------------------------|
------------------------------|----------15------13--------12--13--|
------------------------------|--12--12------12------12-12---------|
--17------------13------------|------------------------------------|
------------------------------|------------------------------------|
------------------------------|------------------------------------|



----------------------------------|----------------------------------|
----------------------------------|------------------------------13--|
--14--11------11--14--11------11--|--16----------14--16--14--16------|
----------12--------------12------|------12--16----------------------|
----------------------------------|----------------------------------|
----------------------------------|----------------------------------|



----------------------------------|------------------------------------|
--15----------15p-13------13h-15--|----------15------13--------12--13--|
------12--12----------12----------|--12--12------12------12-12---------|
----------------------------------|------------------------------------|
----------------------------------|------------------------------------|
----------------------------------|------------------------------------|



----------------------------------|----------------------------------|
----------------------------------|------------------------------13--|
--14--11------11--14--11------11--|--16----------14--16--14--16------|
----------12--------------12------|------12--16----------------------|
----------------------------------|----------------------------------|
----------------------------------|----------------------------------|



--------------14/-10------10/-15--|--12------------12------------|
--15------------------------------|------8-8-7--8------8-8-7--8--|
------12--12----------12----------|------------------------------|
----------------------------------|------------------------------|
----------------------------------|------------------------------|
----------------------------------|------------------------------|



--12------------12------------|--11------------11------------|
------8-8-7--8------8-8-7--8--|------8-8-7--8------8-8-7--8--|
------------------------------|------------------------------|
------------------------------|------------------------------|
------------------------------|------------------------------|
------------------------------|------------------------------|



--11------------11------------|--12------------12------------|
------8-8-7--8------8-8-7--8--|------8-8-7--8------8-8-7--8--|
------------------------------|------------------------------|
------------------------------|------------------------------|
------------------------------|------------------------------|
------------------------------|------------------------------|



--12------------12------------|------------------------------------------|
------8-8-7--8------8-8-7--8--|--17--------16--------17--------19--------|
------------------------------|------------------------------------------|
------------------------------|------14-14-----14-14-----14-14-----14-14-|
------------------------------|------------------------------------------|
------------------------------|------------------------------------------|



----------------------15--------17--------|--17b---------------|
--17--------19----------------------------|--------------------|
------------------------------------------|--------------------|
------14-14-----14-14-----14-14-----14-14-|--------------------|
------------------------------------------|--------------------|
------------------------------------------|--------------------|


Angra albums
2005 Temple of Shadows
2002 Hunters and Prey
2001 Rebirth
1998 Fireworks
1996 Holy Land
1993 Angels Cry
1992 Reaching Horizons
Temple of Shadows tabs
02Spread Your Fire tabbass tab
06The Temple of Hate tabbass tab

 

1