Search tabs:
Browse artists: 0-9 | A | B | C | D | E | F | G | H | I | J | K | L | M | N | O | P | Q | R | S | T | U | V | W | X | Y | Z
/ Arch Enemy / Burning Bridges (1999) / Seed of Hate guitar tab

ARCH ENEMY - SEED OF HATE
                        From the Album BURNING BRIDGES
                       Copyright 1999 - CENTURY MEDIA

                            Version 3.1 - MAY '02

Transcribed by: Haris Durakovic
Version 3.1 by: death8699

For Questions, Comments, Newest Version, or Corrections contact:
     Harry: at foreverlorn@gmx.de
 death8699: at ArchEnemies@aol.com

Check Out Death8699.com With More Transcriptions at:
 http://www.death8699.com




.  - palm mute                  /  - slide up to
\  - slide down to              ~  - vibrato
"  - tremelo picking           ( ) - ghost note
b  - bend                       h  - hammer-on
fb - full bend (1 step)         p  - pull-off
hb - half bend (1/2 step)       r  - release a bend
t  - tapping                    ah - artificial harmonic

Tune Gtr to B

--SEED OF HATE--

[Fill 1]
[-------]
[-------]
[*-----*]Gtrs
[*-----*]I&II
[-------]
[--/x\--]
   sl


[Riff A]                                           1.
[-------------------------------------------------|---------------------]
[-------------------------------------------------|---------------------]
[*-2------5-7----4----0---------------------------|-7/9-9/12-12/16-16~-*]Gtr
[*-2------7-7----5----2--121210109977-9----10-----|--------------------*] I
[--0-0-00-----00---00-----------------8-88--8-----|-5/7-7/10-10/14-14~--]
[---------------------------------------------x\--|--sl--sl----sl-------]
     . ..     ..   ..    .  . . .....   ..     sl
                                                   1.
[-------------------------------------------------|---------------------]
[-------------------------------------------------|---------------------]
[*-2------5-7----4----0--1010-9-97755-------------|-7/9-9/12-12/16-16~-*]Gtr
[*-2------7-7----5----2---------------9----10-----|--------------------*] II
[--0-0-00-----00---00-----------------8-88--8-----|-5/7-7/10-10/14-14~--]
[---------------------------------------------x\--|--sl--sl----sl-------]
     . ..     ..   ..     . . . .....   ..     sl

 2.
[-----------------------]
[-----------------------]
[*-----------------9~~-*]Gtr
[*----------77-99-10~~-*] I
[--5577-8-8-------------]
[-----------------------]
   .... . . .. ..

 2.
[-----------------------]
[-----------------11~---]
[*----------99111112~--*]Gtr
[*-77991010------------*] II
[-----------------------]
[-----------------------]
   .... . . .. . .


[Fill 2]
[----------]
[----------]
[*-2-(2)--*]Gtrs
[*-2-(2)--*]I&II
[--0-(0)---]
[----------]


[Riff B] Let ring (clean)
[---------------------------0---|-------------------------0----]
[--------0--------0-------0---0-|-------0--------0------0---0--]
[*-----5--------5---------------|-----5--------5--------------*]Gtrs
[*---7--------7--------7--------|---7--------7--------7-------*]I&II
[--0--------8--------5----------|-8--------8--------5----------]
[-------------------------------|------------------------------]


Fill 1
Riff A [1tx]


[Riff C]                       1.         2.      3.
[-----------------------------|----------|-------|-------------------]
[-----------------------------|----------|-------|-------------------]
[*---------------12-12--12----|-12/14-14-|-------|------------------*]Gtr
[*-9-9---12-12---12-12--12----|-12/14-14-|-------|------------------*] I
[--9-9---12-12---10-10--10--0-|-10/12-12-|-12-12-|-1717141416161414--]
[--7-7-x-10-10-x--------------|---sl-----|-10-9--|-------------------]
       .       .            .                       . . . . . . . .

                               1.         2.      3.
[-----------------------------|----------|-------|-------------------]
[-----------------------------|----------|-------|-------------------]
[*---------------12-12--12----|-12/14-14-|-------|------------------*]Gtr
[*-9-9---12-12---12-12--12----|-12/14-14-|-------|-1616121214141212-*] II
[--9-9---12-12---10-10--10--0-|-10/12-12-|-12-12-|-------------------]
[--7-7-x-10-10-x--------------|---sl-----|-10-9--|-------------------]
       .       .            .                       . . . . . . . .


[Riff C.1] (w/Riff C)
[--------------------------------------|--------------------------------]
[--------------------------------------|--------------------------------]
[*-------------------------------------|-------------------------------*]Gtr
[*-------------------------------------|-------------------------------*]III
[--171717-16-14-12-14~-----------------|---9--7-------------------------]
[----------------------14-12-10-12-14~-|-7------10-9--9-/10\7~-5/7\5~~--]
                                                       sl  sl  sl sl
[--------------------------------------|--------------------------------]
[--------------------------------------|--------------------------------]
[*-191919-18-16-14-16~-----------------|---11-9------------------------*]Gtr
[*---------------------16-14-12-14-16~-|-9------12-11-11/12\9~-7/9\7~~-*] IV
[--------------------------------------|----------------sl-sl--sl-sl----]
[--------------------------------------|--------------------------------]


Fill 2
Riff B       [1tx]
Fill 1
Riff A       [1tx]
Riff C       [1tx]
Riff C + C.1 [1tx]


[Riff D]                                 [4tx]
[--------------------|-----------------------]
[--------------------|-----------------------]
[*-2----4----5-------|---7----------2-(2)---*]Gtrs
[*-2----5----5----3--|---7----5-----2-(2)---*]I&II
[--0----2----3----3--|---5----5-----0-(0)----]
[----0----0----0--1--|-0---0--3--0-----------]
     .    .    .       .   .     .


[Riff D.1]                               [4tx]
[--------------------|-----------------------]
[--------------------|-----------------------]
[*-------------------|----------------------*]Gtrs
[*-------------------|----------------------*]I&II
[--0"----2"----3"----|-------5"----------0"--]
[--------------------|-1"----------3"--------]
   .     .     .       .     .     .     .


[Riff D.2]                               [2tx]
[--------------------|-----------------------]
[--------------------|-----------------------]
[*-------------------|-------9-7------2-5---*]Gtrs
[*-------------------|-------9-7------2-5---*]I&II
[--7"----5"----0"----|-3"----7-5----0-0-3----]
[--------------------|-----------------------]
   .     .     .       .            .


Riff C       [1tx]
Riff C + C.1 [1tx]
End.

Check Out Death8699.com With More Transcriptions at:
 http://www.death8699.com


Arch Enemy albums
2003 Anthems of Rebellion
2001 Wages of Sin
1999 Burning Bridges
1998 Stigmata
1996 Black Earth
Burning Bridges tabs
01The Immortal tabbass tab
02Dead Inside tabbass tab
03Pilgrim tabbass tab
04Silverwing tabbass tab
05Demonic Science tabbass tab
06Seed of Hate tabbass tab
07Angelclaw tabbass tab
08Burning Bridges '99 tabbass tab

 

1