Search tabs:
Browse artists: 0-9 | A | B | C | D | E | F | G | H | I | J | K | L | M | N | O | P | Q | R | S | T | U | V | W | X | Y | Z
/ At The Gates / Slaughter Of The Soul (1995) / Into The Dead Sky guitar tab

At The Gates - Into The Dead Sky
Tuning Normal - (EADGBE)

|---------------------------------------------------------|
|--------2-------------4-------------2------------4-------|
|:-----2---2---------2---2---------2---2--------2---2-----| GIT 1
|:---4-------4-----4-------4-----4-------4----4-------4---|
|---------------------------------------------------------|
|--2-------------2-------------2------------2-------------|


|------------------------------------2------------*------|
|--------2-------------2--------------------------5------|
|------2---2---------2---2---------2---2--------2---2---:|
|----6-------6-----6-------6-----6-------6----6-------6-:|
|--------------------------------------------------------|
|--4-------------4-------------4------------4------------|



|--------------------------------------------------------|
|--------9--------9--------9---------9-------------------|
|-------9--------9--------9---------9-------------------:|
|-----13-------13-------13--------13--------------------:| GIT 1
|---11-------12--------9---------9-----------------------|
|--9------9-9------9-12-----12-11------------------------|
|
|
|
|--------------------------------------------------------|
|--------------------------------------------------------|
|-------------------------------------------------------:|
|-------------------------------------------------------:| GIT 2
|--4~-----------------7~---------------------------------|
|-----------5~------------------4~-----------------------|


|--------------------------------------------------------|
|--------9--------9--------9---------9-------------------|
|-------9--------9--------9---------9-------------------:|
|-----13-------13-------13--------13--------------------:| GIT 1
|---11-------12--------9---------9-----------------------|
|--9------9-9------9-12-----12-11------------------------|
|
|
|
|--------------------------------------------------------|
|--------------------------------------------------------|
|-------------------------------------------------------:|
|-----------------------2-------------------------------:| GIT 2
|--4~------------------4---------------------------------|
|-----------5~--------0----0----4~-----------------------|


 BASS
|------------------------|
|------------------------|
|------------------------|
|--2----fade out---------|



 GUITAR
|---------------------------------------------------------|
|--------2-------------4-------------2------------4-------|
|:-----2---2---------2---2---------2---2--------2---2-----|
|:---4-------4-----4-------4-----4-------4----4-------4---|
|---------------------------------------------------------|
|--2-------------2-------------2------------2-------------|


|--*-----4-------------2-------------0-------------------|
|-------------------------------------------------4------|
|------2---2---------2---2---------2---2--------4---4---:|
|----6-------6-----6-------6-----6-------6----6-------6-:|
|--------------------------------------------------------|
|--4-------------4-------------4------------4------------|


|------------------------------------------------|
|------------------------------------------------| GTR 1
|------6-----------------------------------------|
|----6---6---4---2-2---1-------2-----------------|
|--4-------2---0-----0---0---4-------------7---6-|
|--------------------------0-----0-2-3-4-4---4---|
|
|
|------------------------------------------------|
|------------------------------------------------|
|------------------------------------------------|GTR 2
|------------------------------------------------|
|--4---7---6---4---7---6---4---7---6---3---7---6-|
|------------------------------------------------|
|
|					
|------------------------------------------------|
|------------------------------------------------|GTR 3
|------------------------------------------------|
|------------------6---4-------------------6---4-|
|--4---7---6---4-----------4---7---6---3---------|
|------------------------------------------------|



|------------------------------------------------|
|------------------------------------------------| GTR 1
|------6-----------------------------------------|
|----6---6---4---2-2---1-------2-----------------|
|--4-------2---0-----0---0---4-------------7---6-|
|--------------------------0-----0-2-3-4-4---4---|
|
|
|------------------------------------------------|
|------------------------------------------------|
|------------------------------------------------|GTR 2
|------------------------------------------------|
|--4---7---6---4---7---6---4---7---6---3~--------|
|------------------------------------------------|
|
|					
|------------------------------------------------|
|------------------------------------------------|GTR 3
|------------------------------------------------|
|------------------6---4-------6---4-------------|
|--4---7---6---4-----------7-----------6~--------|
|------------------------------------------------|


|----------0---------0---------0---------0----------0-----------0------|
|--------0---------0---------0---------0----------0-----------0--------|
|------8---------8---------5---------5----------8-----------8----------|
|----6---------6---------5---------5----------6-----------6------------|
|--4---------4---------3---------3-------------------------------------|
|-------------------------------------------4-----------4--------------|


|----------0------------0------------2--------2---------2---------2----|
|--------0------------0------------2--------2---------2---------2------|
|------5------------5------------4--------4---------4---------4--------|
|----2------------2------------4--------4---------4---------4----------|
|--0------------0------------2--------2---------0---------0------------|
|----------------------------------------------------------------------|

					
|----------2---------2---------------------------|
|--------2---------2-----------------------------|
|------4---------4---------4-----5-----4-----5---|
|----4---------4---------2-----2-----2-----2-----|
|--2---------2---------0-----0-----0-----0-------|
|------------------------------------------------|


At The Gates albums
1995 Slaughter Of The Soul
1994 Terminal Spirit Disease
1993 With Fear I Kiss The Burning Darkness
1992 The Red in the Sky is Ours
1991 Gardens of Greif
Slaughter Of The Soul tabs
01Blinded By Fear tabbass tab
02Slaughter Of The Soul tabbass tab
03Cold tabbass tab
04Under A Serpent Sun tabbass tab
05Into The Dead Sky tabbass tab
06Suicide Nation tabbass tab
07World Of Lies tabbass tab
08Unto Others tabbass tab
09Nausea tabbass tab
10Need tabbass tab
11The Flames Of The End tabbass tab

 

1