Search tabs:
Browse artists: 0-9 | A | B | C | D | E | F | G | H | I | J | K | L | M | N | O | P | Q | R | S | T | U | V | W | X | Y | Z
/ At The Gates / Slaughter Of The Soul (1995) / Slaughter Of The Soul guitar tab

At The Gates - Slaughter Of The Soul
Tabbed by: Treb (AudioTerroristTreble@hotmail.com)

Tuning: Baritone 1 (B E A D F# B)

Fast paced.
Fun To play.
Listen for timing and everything.
Just have fun with it.
There are no actual artificial harmonics in this song but I like to throw some in.
G= F# people, dont let the staff fool you.
I did this withoout the aid of the song being played.
I misplaced my At The Gates Albums.
So I don't have the solo in this.
Sorry. It's pretty simple.
Other then that this is the entire song.
100% for me.
But i like to throw in things to make it fun. Later. Enjoy.


B|------------------||
G|------------------||
D|------------------||
A|------------------||
E|------------------||
B|-12\\--------------||

Intro:
B|---------------------------------------------------------------------------||
G|---------------------------------------------------------------------------||
D|---------------------------------------------------------------------------||
A|-----------------------------------------------------------*--------[x2]---||
E|-----7---5h7-7----10---9---22232------7----5h7---7---2h5p2h5~--------------||
B|-000---00---0--00----0---0------32000---00-----0---0-----------------------||
   ...   ..   .  ..    .   .      .....   ..     .   .       (*=A.H. optional)

Verse:
B|--------------------------------------------------------------------------||
G|--------------------------------------------------------------------------||
D|--------------------------------------------------------------------------||
A|--------------9--------------------------------------------------[x4]-----||
E|-----7----7---------10-9h10p9-7-----3----2h3p2-------2---23---------------||
B|-000---00---0---888---8------8-8/555--55-------5/333--333--2320-----------||
   ...   ..   .   ...   .      .   ...  ..         ...  ...  ....

Chorus:Guitar 1
 B|-----------------------------------------------||
 G|-----------------------------------------------||
 D|-----------------------------------------------||
 A|-----9-7---7-5----9-7-------7h9h10-------------||
 E|----------------------7h8h10-------------------||
 B|-000----888---000------------------------------||
    ...    ...   ...
Chorus:Guitar 2
 B|-------------------------------------||
 G|-------------------------------------||
 D|-------------------------------------||
 A|-----------------------------*-------||
 E|-----------------------2h5p2h5~------||
 B|-0000008888888000000555--------------||
    ......................
Bridge:
                                        First |         Second Ending
 B|----------------------------------|--------|--------------------||
 G|----------------------------------|--------|--------------------||
 D|----------------------------------|--------|--------------------||
 A|----------------------------------|-4-3-2--|-----------*--------||
 E|----7--5h7-7------------7--5h7-7--|-2-1-0--|-------5-6-8~-------||
 B|-000-00---0-0-3/5/6~-000-00---0--0|-2-1-0--|-3-5-6--------------||
    ... ..   .          ... ..   .  .

 Guitar 2 During Solo:
 B|---------------------------------------------------------------------------||
 G|---------------------------------------------------------------------------||
 D|---------------------------------------------------------------------------||
 A|---------------------------------------------------------------------------||
 E|-------------------------------------------------*-------------------------||
 B|-0-000-0-000-8-888-8-888-0-000-000-7-777-7h10p7h10~------------------------||


At The Gates albums
1995 Slaughter Of The Soul
1994 Terminal Spirit Disease
1993 With Fear I Kiss The Burning Darkness
1992 The Red in the Sky is Ours
1991 Gardens of Greif
Slaughter Of The Soul tabs
01Blinded By Fear tabbass tab
02Slaughter Of The Soul tabbass tab
03Cold tabbass tab
04Under A Serpent Sun tabbass tab
05Into The Dead Sky tabbass tab
06Suicide Nation tabbass tab
07World Of Lies tabbass tab
08Unto Others tabbass tab
09Nausea tabbass tab
10Need tabbass tab
11The Flames Of The End tabbass tab

 

1