Search tabs:
Browse artists: 0-9 | A | B | C | D | E | F | G | H | I | J | K | L | M | N | O | P | Q | R | S | T | U | V | W | X | Y | Z
/ At The Gates / Slaughter Of The Soul (1995) / Suicide Nation guitar tab

I play this in drop D because I find it much easier and more convenient, but it is
NOT how it is meant to be played.  I do it simply because it is more convenient.
It should be played in drop B.  The only differences between the two ways of playing
though, is that some of the 9's of the D string and 2's of the A string while in
drop D are open notes on the B string of Drop B.  I will note where these spots are
with a "*".  Besides that, this tab is perfect in all but 2 spots (I'll note where
they are).  When I perfect it, I'll update and everything will be dandy.

E|-----------------------------------------------------------||
B|-----------------------------------------------------------||
G|-----------------------------------------------------------||
D|----------------------------------------------7------------||
A|--------------8--5-7----5\---------------8--5------5\------||
D|-9-99999-9999---------9-----9-99999-9999---------9---------||
   * ***** ****               * ***** ****

E|-----------------------------------------------------------||
B|-----------------------------------------------------------||
G|-----------------------------------------------------------||
D|----------------------------------------------7------------||
A|--------------8--5-7----5\---------------8--5------5\------||
D|-9-99999-9999---------9-----9-99999-9999---------9---------||
   * ***** ****               * ***** ****

E|-----------------------------------------------------------||
B|-----------------------------------------------------------||
G|-----------------------------------------------------------||
D|----------------------------------------------7------------||
A|--------------8--5-7----5\---------------8--5------5\------||
D|-9-99999-9999---------9-----9-99999-9999---------9---------||
   * ***** ****               * ***** ****

  0:17
E|----------------||
B|----------------||
G|----------------||
D|----------------||
A|-222222222222---||
D|----------------||
   ************

  0:19
E|----------------------------------------------------------------||
B|-----------------------------3----------------------------------||
G|----------------------------------------------------------------||
D|------------------------4-5-------------------------------------||
A|-222222222-2h4h5-----------------222222222-2h4h5--------111111--||
D|-----------------555555--------------------------555555---------||
   *********                       *********

E|----------------------------------------------------------------||
B|-----------------------------3----------------------------------||
G|----------------------------------------------------------------||
D|------------------------4-5-------------------------------------||
A|-222222222-2h4h5-----------------222222222-2h4h5--------111111--||
D|-----------------555555--------------------------555555---------||
   *********                       *********

 Verse  0:31
E|----------------------------------------------------------------||
B|-----------------------------3----------------------------------||
G|----------------------------------------------------------------||
D|------------------------4-5-------------------------------------||
A|-222222222-2h4h5-----------------222222222-2h4h5--------111111--||
D|-----------------555555--------------------------555555---------||
   *********                       *********

E|----------------------------------------------------------------||
B|-----------------------------3----------------------------------||
G|----------------------------------------------------------------||
D|------------------------4-5-------------------------------------||
A|-222222222-2h4h5-----------------222222222-2h4h5--------111111--||
D|-----------------555555--------------------------555555---------||
   *********                       *********

 0:44
E|--------------------------------------------------||
B|--------------------------------------------------||
G|--------------------------------------------------||
D|-------------------------2-----------2------------||
A|-5-2-2-4-2-2-5-2-2-4-2-2---2-2-5-2-2---2-2-5-2-2--||
D|--------------------------------------------------||
     * *   * *   * *   * *   * *   * *   * *   * *

E|--------------------------------------------------||
B|--------------------------------------------------||
G|--------------------------------------------------||
D|-------------------------2-----------2------------||
A|-5-2-2-4-2-2-5-2-2-4-2-2---2-2-5-2-2---2-2-1-2-4--||
D|--------------------------------------------------||
     * *   * *   * *   * *   * *   * *   * *

E|--------------------------------------------------||
B|--------------------------------------------------||
G|--------------------------------------------------||
D|-------------------------2-----------2------------||
A|-5-2-2-4-2-2-5-2-2-4-2-2---2-2-5-2-2---2-2-5-2-2--||
D|--------------------------------------------------||
     * *   * *   * *   * *   * *   * *   * *   * *

E|--------------------------------------------------||
B|--------------------------------------------------||
G|--------------------------------------------------||
D|-------------------------2-----------2------------||
A|-5-2-2-4-2-2-5-2-2-4-2-2---2-2-5-2-2---2-2-1-2-4--||
D|--------------------------------------------------||
     * *   * *   * *   * *   * *   * *   * *

  Verse 0:55
E|----------------------------------------------------------------||
B|-----------------------------3----------------------------------||
G|----------------------------------------------------------------||
D|------------------------4-5-------------------------------------||
A|-222222222-2h4h5-----------------222222222-2h4h5--------111111--||
D|-----------------555555--------------------------555555---------||
   *********                       *********

E|----------------------------------------------------------------||
B|-----------------------------3----------------------------------||
G|----------------------------------------------------------------||
D|------------------------4-5-------------------------------------||
A|-222222222-2h4h5-----------------222222222-2h4h5--------111111--||
D|-----------------555555--------------------------555555---------||
   *********                       *********

  1:08
E|----------------------------------------||
B|----------------------------------------||
G|----------------------------------------||
D|----------------------------------------||
A|-2--2-5-4-2----------2--2-5-4-2---------||
D|------------5--4-2--------------0--2-3--||
   *                   *  *

E|------------------------------------------||
B|------------------------------------------||
G|------------------------------------------||
D|------------------------------------------||
A|-2222222-5-4-2---------2--2-5-4-2---------||
D|---------------5--4-2-------------0--2-3--||
   *******               *

E|--------------------------------------||
B|--------------------------------------||
G|--------------------------------------||
D|--------------------------------------||
A|-2--2-5-4-2----------2--2-5-4-2-------||
D|------------5--4-2------------0--2-3--||
   *                   *

E|------------------------------------------||
B|------------------------------------------||
G|------------------------------------------||
D|------------------------------------------||
A|-2222222-5-4-2---------2--2-5-4-2---------||
D|---------------5--4-2-------------0--2-3--||
   *******               *

  1:22
E|--------------------------------------------------||
B|--------------------------------------------------||
G|--------------------------------------------------||
D|-------------------------2-----------2------------||
A|-5-2-2-4-2-2-5-2-2-4-2-2---2-2-5-2-2---2-2-5-2-2--||
D|--------------------------------------------------||
     * *   * *   * *   * *   * *   * *   * *   * *

E|--------------------------------------------------||
B|--------------------------------------------------||
G|--------------------------------------------------||
D|-------------------------2-----------2------------||
A|-5-2-2-4-2-2-5-2-2-4-2-2---2-2-5-2-2---2-2-1-2-4--||
D|--------------------------------------------------||
     * *   * *   * *   * *   * *   * *   * *

E|--------------------------------------------------||
B|--------------------------------------------------||
G|--------------------------------------------------||
D|-------------------------2-----------2------------||
A|-5-2-2-4-2-2-5-2-2-4-2-2---2-2-5-2-2---2-2-5-2-2--||
D|--------------------------------------------------||
     * *   * *   * *   * *   * *   * *   * *   * *

E|--------------------------------------------------||
B|--------------------------------------------------||
G|--------------------------------------------------||
D|-------------------------2-----------2------------||
A|-5-2-2-4-2-2-5-2-2-4-2-2---2-2-5-2-2---2-2-1-2-4--||
D|--------------------------------------------------||
     * *   * *   * *   * *   * *   * *   * *


  Verse 1:33
E|----------------------------------------------------------------||
B|----------------------------------------------------------------||
G|----------------------------------------------------------------||
D|----------------------------------------------------------------||
A|-222222222-2h4h5--------------222222222-2h4h5--------111111-----||
D|-----------------555555555555-----------------555555------------||
   *********                    *********

E|----------------------------------------------------------------||
B|----------------------------------------------------------------||
G|----------------------------------------------------------------||
D|----------------------------------------------------------------||
A|-222222222-2h4h5--------------222222222-2h4h5--------111111-----||
D|-----------------555555555555-----------------555555------------||
   *********                    *********

  1:45
E|----------------------------------------||
B|----------------------------------------||
G|----------------------------------------||
D|----------------------------------------||
A|-2--2-5-4-2----------2--2-5-4-2---------||
D|------------5--4-2--------------0--2-3--||
   *                   *

E|------------------------------------------||
B|------------------------------------------||
G|------------------------------------------||
D|------------------------------------------||
A|-2222222-5-4-2---------2--2-5-4-2---------||
D|---------------5--4-2-------------0--2-3--||
   *******               *

E|----------------------------------------||
B|----------------------------------------||
G|----------------------------------------||
D|----------------------------------------||
A|-2--2-5-4-2----------2--2-5-4-2---------||
D|------------5--4-2--------------0--2-3--||
   *                   *

E|------------------------------------------||
B|------------------------------------------||
G|------------------------------------------||
D|------------------------------------------||
A|-2222222-5-4-2---------2--2-5-4-2---------||
D|---------------5--4-2-------------0--2-3--||
   *******               *

  1:59
E|-----------------------------------------------------------||
B|-----------------------------------------------------------||
G|-----------------------------------------------------------||
D|----------------------------------------------7------------||
A|--------------8--5-7----5\---------------8--5------5\------||
D|-9-99999-9999---------9-----9-99999-9999---------9---------||
   * ***** ****               * ***** ****

E|-----------------------------------------------------------||
B|-----------------------------------------------------------||
G|-----------------------------------------------------------||
D|----------------------------------------------7------------||
A|--------------8--5-7----5\---------------8--5------5\------||
D|-9-99999-9999---------9-----9-99999-9999---------9---------||
   * ***** ****               * ***** ****

E|-----------------------------------------------------------||
B|-----------------------------------------------------------||
G|-----------------------------------------------------------||
D|----------------------------------------------7------------||
A|--------------8--5-7----5\---------------8--5------5\------||
D|-9-99999-9999---------9-----9-99999-9999---------9---------||
   * ***** ****               * ***** ****

  2:10 I just can't get this part, sorry.  I'll try and figure
it out as soon as I can, or email it to me at afistevo@aol.com

  2:21
E|--------------------------------------------------||
B|--------------------------------------------------||
G|--------------------------------------------------||
D|-------------------------2-----------2------------||
A|-5-2-2-4-2-2-5-2-2-4-2-2---2-2-5-2-2---2-2-5-2-2--||
D|--------------------------------------------------||
     * *   * *   * *   * *   * *   * *   * *   * *

E|--------------------------------------------------||
B|--------------------------------------------------||
G|--------------------------------------------------||
D|-------------------------2-----------2------------||
A|-5-2-2-4-2-2-5-2-2-4-2-2---2-2-5-2-2---2-2-1-2-4--||
D|--------------------------------------------------||
     * *   * *   * *   * *   * *   * *   * *

E|--------------------------------------------------||
B|--------------------------------------------------||
G|--------------------------------------------------||
D|-------------------------2-----------2------------||
A|-5-2-2-4-2-2-5-2-2-4-2-2---2-2-5-2-2---2-2-5-2-2--||
D|--------------------------------------------------||
     * *   * *   * *   * *   * *   * *   * *   * *

Solo
Guitar 1 2:27 This is the other part I'm not positive on.  It's super close tho
E|------------------------------------||
B|------------------------------------||
G|--11--------------------------------||
D|-----12-11-9------12----12--11--11--||
A|-------------12-9-------------------||
D|------------------------------------||

Note these two guitar parts I have not coordinated.  it's not difficult
to figure out the coordination, however.

 Guitar 2
E|--------------------------------------------------||
B|--------------------------------------------------||
G|--------------------------------------------------||
D|-------------------------2-----------2------------||
A|-5-2-2-4-2-2-5-2-2-4-2-2---2-2-5-2-2---2-2-1-2-4--||
D|--------------------------------------------------||
     * *   * *   * *   * *   * *   * *   * *

  Guitar 1
E|------------------------------------------------------||
B|------------------------------------------------------||
G|--------11-12-14-12---12-11--9--11--9--11-------------||
D|--9---9-----------------------------------11b12-11----||
A|------------------------------------------------------||
D|------------------------------------------------------||

 Guitar 2   These chords are played a bunch 'o times
E|------------------------------------------------------||
B|------------------------------------------------------||
G|------------------------------------------------------||
D|-9---------------5--------------0---------7---8---9---||
A|-9---------------5--------------0---------7---8---9---||
D|-9---------------5--------------0---------7---8---9---||

  Guitar 1
E|---------------------------------------------------------------------||
B|---------------------------------------------------------------------||
G|-------12p9--11p7--9p6--------12p9--11p7--9p6--------12p9--11p7--9p6-||
D|-12p9-------------------12p9-------------------12p9------------------||
A|---------------------------------------------------------------------||
D|---------------------------------------------------------------------||

  Guitar 2  Again, chords played bunch 'o times... you got the idea
E|----------------------------------------------------------------||
B|----------------------------------------------------------------||
G|----------------------------------------------------------------||
D|-9-----------------------5---------------------0----------------||
A|-9-----------------------5---------------------0----------------||
D|-9-----------------------5---------------------0----------------||

  Guitar 1
E|--------------------------------||
B|--------------------------------||
G|--11p7--9p6--7-6-4-3-4-6-4-6-7--||
D|--------------------------------||
A|--------------------------------||
D|--------------------------------||

  Guitar 2
E|--------------------------------||
B|--------------------------------||
G|--------------------------------||
D|--0--------------7---8----------||
A|--0--------------7---8----------||
D|--0--------------7---8----------||

  2:44
E|----------------------------------------------------------------||
B|-----------------------------3----------------------------------||
G|----------------------------------------------------------------||
D|------------------------4-5-------------------------------------||
A|-222222222-2h4h5-----------------222222222-2h4h5--------111111--||
D|-----------------555555--------------------------555555---------||
   *********                       *********

E|----------------------------------------------------------------||
B|-----------------------------3----------------------------------||
G|----------------------------------------------------------------||
D|------------------------4-5-------------------------------------||
A|-222222222-2h4h5-----------------222222222-2h4h5--------111111--||
D|-----------------555555--------------------------555555---------||
   *********                       *********

E|----------------------------------------||
B|----------------------------------------||
G|----------------------------------------||
D|----------------------------------------||
A|-2--2-5-4-2----------2--2-5-4-2---------||
D|------------5--4-2--------------0--2-3--||
   *                   *

E|------------------------------------------||
B|------------------------------------------||
G|------------------------------------------||
D|------------------------------------------||
A|-2222222-5-4-2---------2--2-5-4-2---------||
D|---------------5--4-2-------------0--2-3--||
   *******               *

  3:10
E|-----------------------------------------------------------||
B|-----------------------------------------------------------||
G|-----------------------------------------------------------||
D|----------------------------------------------7------------||
A|--------------8--5-7----5\---------------8--5------5\------||
D|-9-99999-9999---------9-----9-99999-9999---------9---------||
   * ***** ****               * ***** ****

E|-----------------------------------------------------------||
B|-----------------------------------------------------------||
G|-----------------------------------------------------------||
D|----------------------------------------------7------------||
A|--------------8--5-7----5\---------------8--5------5\------||
D|-9-99999-9999---------9-----9-99999-9999---------9---------||
   * ***** ****               * ***** ****

  3:21  The same crafty part I couldn't get earlier.

             G-4-
             D-4-
Song ends on A-2- or open power chord of the bottom 3 strings if
played in correct tuning


At The Gates albums
1995 Slaughter Of The Soul
1994 Terminal Spirit Disease
1993 With Fear I Kiss The Burning Darkness
1992 The Red in the Sky is Ours
1991 Gardens of Greif
Slaughter Of The Soul tabs
01Blinded By Fear tabbass tab
02Slaughter Of The Soul tabbass tab
03Cold tabbass tab
04Under A Serpent Sun tabbass tab
05Into The Dead Sky tabbass tab
06Suicide Nation tabbass tab
07World Of Lies tabbass tab
08Unto Others tabbass tab
09Nausea tabbass tab
10Need tabbass tab
11The Flames Of The End tabbass tab

 

1