Search tabs:
Browse artists: 0-9 | A | B | C | D | E | F | G | H | I | J | K | L | M | N | O | P | Q | R | S | T | U | V | W | X | Y | Z
/ At The Gates / Slaughter Of The Soul (1995) / Unto Others guitar tab

At The Gates
"unto others"

tuning: B E A D G B

.  = palm mute
P  = pull off
h  = hammer on
~  = vibrato
*  = harmonic
x  = muted string

riff 1:
|-----------------------------------------------------------------|
|-----------------------------------------------------------------|
|-----------------------------------------------------------------|
|---7p6-----------------------------7p6---------------------------|
|-8-----7-8p5---------------------8-----7-8p5-8--8-8-8--8--8-8-8--|
|-------------0--0-0-0--0--0-0-0----------------------------------|
              .  . . .  .  . . .              .  . . .  .  . . .

riff 2
part 1:
|---------------------------|
|---------------------------|
|---------------------------|
|-------------------6p5-----|
|-7-----7-----7---------8p7-|
|---0-0---0-0---0-0---------|
    . .   . .   . .

part 2:
|-------------------------------------------------|
|-------------------------------------------------|
|-------------------------------------------------|
|-------------------------------------------------|
|-7~----------8~----------7~----------5~----------|
|-------------------------------------------------|

riff 3:
|-------------------------------------------------|
|-8-8-8-5-5-5-0-0-0-8-8-8-------------------------|
|-------------------------8-8-8-5-5-5-0-0-0-------|
|-------------------------------------------6-6-6-|
|-------------------------------------------------|
|-------------------------------------------------|

|----------------------------------------|
|-8-8-8-5-5-5-0-0-0-8-8-8-7-7-7-8-8-8----|
|-------------------------------------4~-|
|----------------------------------------|
|----------------------------------------|
|----------------------------------------|

riff 4:
|-------------------------------------------------------------------|
|-------------------------------------------------------------------|
|-------------------------------------------------------------------|
|----------------------------------------------------------12-------|
|----------7-------9-------6h7h9----------6-------------10----10----|
|-0--0-0-0---0-0-0---0-0-0-------8--8-8-8---8-8-8--8h11----------11-|
  .  . . .   . . .   . . .       .  . . .   . . .

|--------------------------------------------------------------------|
|--------------------------------------------------------------------|
|--------------------------------------------------------------------|
|--------------------------------------------------------------------|
|----------7-------9-------6h7h9-------------------------------------|
|-0--0-0-0---0-0-0---0-0-0-------7--7--7--3--3--3--2--2--2--2--2--2--|
  .  . . .   . . .   . . .       .  .  .  .  .  .  .  .  .  .  .  .

solo:
|-------------------------------------------------|
|-8p5p0-8p5p0-8p5p0-8p5p0-------------------------|
|-------------------------8p5p0-8p5p0-8p5p0-8p5p0-|
|-------------------------------------------------|
|-------------------------------------------------|
|-------------------------------------------------|

|-------------------------------------5-----7-----|
|-8p5p0-8p5p0-8p5p0-8p5p0-7p4p0-8p5p0---7p0---8p0-|
|-------------------------------------------------|
|-------------------------------------------------|
|-------------------------------------------------|
|-------------------------------------------------|

|-------------------------------------------------|
|-8p5p0-8p5p0-8p5p0-8p5p0-------------------------|
|-------------------------8p5p0-8p5p0-8p5p0-8p5p0-|
|-------------------------------------------------|
|-------------------------------------------------|
|-------------------------------------------------|

|-------------------------------------5-----7-----|
|-8p5p0-8p5p0-8p5p0-8p5p0-7p4p0-8p5p0---7p0---8p0-|
|-------------------------------------------------|
|-------------------------------------------------|
|-------------------------------------------------|
|-------------------------------------------------|

riff 5:
|-8----------------------|
|-8-------8--------------|
|-9-------8-------9------|
|-9------10-------9------|
|-7------10------10------|
|-0-------8--------------|

|------------------------|
|------------------------|
|------------------------|
|-5-----4----5-----4-----|
|---2-----2----2-----2---|
|-----0-----0----0-----0-|

|-8----------------------|
|-8-------8--------------|
|-9-------8-------9------|
|-9------10-------9------|
|-7------10------10------|
|-0-------8--------------|

|---------------------------|
|---------------------------|
|---------------------------|
|-5-----4----5-----4--------|
|---2-----2----2-----2----2-|
|-----0-----0----0-----0--0-|

riff 6
part 1:
|-------------------------------------------------------------------------|
|-------------------------------------------------------------------------|
|-------------------------------------------------------------------------|
|-7-----7-----7-----7-----------------------------5-----5-----5-----4-----|
|-------------------------6-----6-----6-----6-------2-2---2-2---2-2---2-2-|
|---5-5---5-5---5-5---5-5---2-2---2-2---2-2---2-2-------------------------|
    . .   . .   . .   . .   . .   . .   . .   . .   . .   . .   . .   . .




|-------------------------|
|-------------------------|
|-------------------------|
|-2-----2-----5-----4-----|
|---------------2-----2---|
|---0-0---0-0-----0-----0-|
    . .   . .

part 2:
|-------------------------------------------------------------------------|
|-------------------------------------------------------------------------|
|-------------------------------------------------------------------------|
|-7-----7-----7-----7-----------------------------5-----5-----5-----4-----|
|-------------------------6-----6-----6-----6-------2-2---2-2---2-2---2-2-|
|---5-5---5-5---5-5---5-5---2-2---2-2---2-2---2-2-------------------------|
    . .   . .   . .   . .   . .   . .   . .   . .   . .   . .   . .   . .

|-------------------------|
|-------------------------|
|-------------------------|
|-------------5-----4-----|
|-7*~-----------2-----2---|
|-----------------0-----0-|

riff 7:
|-----------------------------------------------------|
|-----------------------------------------------------|
|------------8----------------------------------------|
|-7-----10---x-----10---9------5---2------5-----4-----|
|-x------x---6------x---x------x---2--------2-----2---|
|-5------8----------8---7------3---0----------0-----0-|

outro:
|-------------------|
|-8-----------------|
|-x---10------------|
|-5----x----9-9-9-9-|
|------8----7-7-7-7-|
|-------------------|


At The Gates albums
1995 Slaughter Of The Soul
1994 Terminal Spirit Disease
1993 With Fear I Kiss The Burning Darkness
1992 The Red in the Sky is Ours
1991 Gardens of Greif
Slaughter Of The Soul tabs
01Blinded By Fear tabbass tab
02Slaughter Of The Soul tabbass tab
03Cold tabbass tab
04Under A Serpent Sun tabbass tab
05Into The Dead Sky tabbass tab
06Suicide Nation tabbass tab
07World Of Lies tabbass tab
08Unto Others tabbass tab
09Nausea tabbass tab
10Need tabbass tab
11The Flames Of The End tabbass tab

 

1