Search tabs:
Browse artists: 0-9 | A | B | C | D | E | F | G | H | I | J | K | L | M | N | O | P | Q | R | S | T | U | V | W | X | Y | Z
/ Ataris / Anywhere But Here (1997) / Blind and Unkind guitar tab

-------------------------------------------------------------------------------
                         Blind and Unkind - The*Ataris
-------------------------------------------------------------------------------
by: Josh (synchrony7@hotmail.com)

Intro x2
e|-----------------------------------------------------------------------------|
B|-----------------------------------------------------------------------------|
G|----------------------------------------------------9-9-9-9-9-9--11----------|
D|-9-9-9-9-9-9--11-11-11-11-11-11--13-13-13-13-13-13--9-9-9-9-9-9--11----------|
A|-9-9-9-9-9-9--11-11-11-11-11-11--13-13-13-13-13-13--7-7-7-7-7-7--9-----------|
E|-7-7-7-7-7-7--9--9--9--9--9--9---11-11-11-11-11-11---------------------------|

Verses:
e|-----------------------------------------------------------------------------|
B|-----------------------------------------------------------------------------|
G|----------------------------------------------------------9-9-9-9-9-9--11----|
D|-9-9-9-9-9-9----11-11-11-11-11-11--13-13-13-13-13-13------9-9-9-9-9-9--11----|
A|-9-9-9-9-9-9----11-11-11-11-11-11--13-13-13-13-13-13------7-7-7-7-7-7--9-----|
E|-7-7-7-7-7-7----9--9--9--9--9--9---11-11-11-11-11-11-------------------------|
   You inhale the toxic fumes, I     look away and          then resume to
   Do all the     things that I      told myself I wouldn't ever do.
   Why do I       always             believe....................  (etc.)

Chorus:
e|-----------------------------------------------------------------------------|
B|-----------------------------------------------------------------------------|
G|-----------------------9-9-9-9-9-9-------------------------------------------|
D|-6-6-6-6-6-6-----------9-9-9-9-9-9-------------------------------------------|
A|-6-6-6-6-6-6-----------7-7-7-7-7-7-------------------------------------------|
E|-4-4-4-4-4-4-----------------------------------------------------------------|
   Why must I            always do this?
   Why do I put          myself through this?
   Love is blind and     so unkind...
e|-----------------------------------------------------------------------------|
B|-----------------------------------------------------------------------------|
G|------------------------11-11-11-11-11-11------------------------------------|
D|-6-6-6-6-6-6------------11-11-11-11-11-11------------------------------------|
A|-6-6-6-6-6-6------------9--9--9--9--9--9-------------------------------------|
E|-4-4-4-4-4-4-----------------------------------------------------------------|
   I never can make up my mind!

Repeat Intro

Verse 2 (palm muted for thee first part)

Repeat Chorus and end on B

This is a super easy song, it took like two minutes to figure it out. Go to the
Complete Ataris Guitar Tablature Archive for the best Ataris tabs on the net!
===============================================================================


Ataris albums
2003 So Long, Astoria
2001 End Is Forever
2000 Let It Burn
1999 Blue Skies, Broken Hearts...Next 12 Exits
1997 Anywhere But Here
Anywhere But Here tabs
011-2-3-4 tabbass tab
02As We Speak tabbass tab
04Hey Kid! tabbass tab
05Take Me Back tabbass tab
06Are We There Yet? tabbass tab
07Angry Nerd Rock tabbass tab
08Let It Go tabbass tab
09Lately tabbass tab
10Alone in Santa Cruz tabbass tab
11Make It Last tabbass tab
12Sleepy tabbass tab
13Four Chord Wonder tabbass tab
14Blind and Unkind tabbass tab
15Clara tabbass tab
16Myself tabbass tab
17Neilhouse tabbass tab
19Boxcar tabbass tab
20Ray tabbass tab

 

1