Search tabs:
Browse artists: 0-9 | A | B | C | D | E | F | G | H | I | J | K | L | M | N | O | P | Q | R | S | T | U | V | W | X | Y | Z
/ Ataris / Anywhere But Here (1997) / Boxcar guitar tab

-------------------------------------------------------------------------------					
           Boxcar - The*Ataris (cover of the Jawbreaker song)	
-------------------------------------------------------------------------------
By: synchrony7@hotmail.com

This is such an easy song!

Intro (x2)
e|-----------------------------------------------------------------------------|
B|-----------------------------------------------------------------------------|
G|---55-----55----55-77-55-----------------------------------------------------|
D|-5-55--55-55-55-55-77-55-----------------------------------------------------|
A|-5-33--55 33-55-33-55-33-----------------------------------------------------|
E|-3-----33----33--------------------------------------------------------------|

VERSE 1:
e|-----------------------------------------------------------------------------|
B|-----------------------------------------------------------------------------|
G|-----------55------------------55-------------------55-------------5---------|
D|-5---------55-------55---------55---------55--------55-------7-----5---------|
A|-5---------33-------55 --------33---------55--------33-------7-----3---------|
E|-3------------------33--------------------33-----------------5---------------|
   "Your not punk and I'm telling everyone, save your breath I never was one..."

CHORUS:
e|-----------------------------------------------------------------------------|
B|-----------------------------------------------------------------------------|
G|---------------------------------------------------------------------55----55|
D|-5-------------------------------7--------------------10-----------5-55-55-55|
A|-5-------------------------------7--------------------10-----------5-33-55-33|
E|-3-------------------------------5--------------------8------------3----33---|
   p.m.................................................................	
"My enemies are all to familiar they're the ones who used to call me friends..."

e|-----------------------------------------------------------------------------|
B|-----------------------------------------------------------------------------|
G|---------------------------------9~----------5-------------------------------|
D|-555--777--999--10-10-10---------9~----------5-------------------------------|
A|-555--777--999--10-10-10---------7~----------3-------------------------------|
E|-333--555--777--8--8--8------------------------------------------------------|
..rules."			  "1, 2, 3, 4, Who's punk what's the

e|--------------------------|  	Second time end on: |---------|
B|--------------------------|  			    |---------|
G|---55-----55----55-77-55--|			    |--19-19--| 	
D|-5-55--55-55-55-55-77-55--|		 	    |--19-19--|
A|-5-33--55 33-55-33-55-33--|			    |--17-17--|	
E|-3-----33----33-----------|			    |---------|	
  ...score?"

Repeat same pattern for second verse
Repeat chorus

Outro: x2
e|-----------------------------------------------------------------------------|
B|-----------------------------------------------------------------------------|
G|--------------55----------------55--------------55----------------55---------|
D|--------5-----55----------55----55----------55--55------------77--55---------|
A|--------5-----33----------55----33----------55--33------------77--33---------|
E|--------3-----------------33----------------33----------------55-------------|
  "You're all alone, You're all alone, You're all alone, You're all alone" 	

end on G.

Any corrections, comments, or questions, just email me.  Wanna trade Ataris tabs?
I have some more, just give me an email.
==============================================================================


Ataris albums
2003 So Long, Astoria
2001 End Is Forever
2000 Let It Burn
1999 Blue Skies, Broken Hearts...Next 12 Exits
1997 Anywhere But Here
Anywhere But Here tabs
011-2-3-4 tabbass tab
02As We Speak tabbass tab
04Hey Kid! tabbass tab
05Take Me Back tabbass tab
06Are We There Yet? tabbass tab
07Angry Nerd Rock tabbass tab
08Let It Go tabbass tab
09Lately tabbass tab
10Alone in Santa Cruz tabbass tab
11Make It Last tabbass tab
12Sleepy tabbass tab
13Four Chord Wonder tabbass tab
14Blind and Unkind tabbass tab
15Clara tabbass tab
16Myself tabbass tab
17Neilhouse tabbass tab
19Boxcar tabbass tab
20Ray tabbass tab

 

1