Search tabs:
Browse artists: 0-9 | A | B | C | D | E | F | G | H | I | J | K | L | M | N | O | P | Q | R | S | T | U | V | W | X | Y | Z
/ Ataris / Anywhere But Here (1997) / Clara guitar tab

=======================================================================
			Clara - The Ataris
=======================================================================
By:  Gary(TheAtaris07@aol.com)
     Josh(Synchrony7@hotmail.com)

~ - let ring
/ - slide

Intro:
e|---------------------------------------------------------------------|
B|---------------------------------------------------------------------|
G|-12~-----12-12-12-12--9-9-9-9-9-9------------------------------------|
D|-12~-----12-12-12-12--9-9-9-9-9-9--10-10-10-10-10-10-10-10-----------|
A|-10~-----10-10-10-10--7-7-7-7-7-7--10-10-10-10-10-10-10-10-----------|
E|------------------------------------8--8--8--8--7--8--7--8-----------|

e|---------------------------------------------------------------------|
B|---------------------------------------------------------------------|
G|-12~-----12-12-12-12--9-9-9-9-9-9------------------------------------|
D|-12~-----12-12-12-12--9-9-9-9-9-9--10-10-10-10-10-10-10-10//12-12/---|
A|-10~-----10-10-10-10--7-7-7-7-7-7--10-10-10-10-10-10-10-10//12-12/---|
E|------------------------------------8--8--8--8--7--8--7--8//12-12/---|

Verse:
e|---------------------------------------------------------------------|
B|---------------------------------------------------------------------|
G|9--------------------------------9-----------------------------------|
D|9-9-------10---------12----------9------9-------10------------12-----|
A|7-9-------10---------12----------7------9-------10------------12-----|
E|--7--------8---------10-----------------7--------8------------10-----|
  I saw you crying as I turned away, did I see your face like it wasn't

Verse Cont'd:
e|---------------------------------------------------------------------|
B|---------------------------------------------------------------------|
G|-----9----------------------------------------------9----------------|
D|-----9-------9---------10----------12---------------9---9------------|
A|-----7-------9---------10----------12---------------7---9------------|
E|-------------7----------8----------10-------------------7------------|
  there, and I know I was wrong, yeah I knew it all along but I didn't

Verse Cont'd:
e|---------------------------------------------------------------------|
B|---------------------------------------------------------------------|
G|---------------------------------------------------------------------|
D|----10---------------------------------------------------------------|
A|----10---------------------------------------------------------------|
E|-----8---------------------------------------------------------------|
  care about you.

Chorus:
e|---------------------------------------------------------------------|
B|---------------------------------------------------------------------|
G|9--------------------------------------------------------------------|
D|9-------------------------12-----------------------------10----------|
A|7-------------------------12-----------------------------10----------|
E|--------------------------10------------------------------8----------|
  Clara where are you today, did you make the same mistakes that I made

Chorus Cont'd:
e|---------------------------------------------------------------------|
B|---------------------------------------------------------------------|
G|-----------------------------------9---------------------------------|
D|------9----------------------------9---------------------------------|
A|------9----------------------------7---------------------------------|
E|------7--------------------------------------------------------------|
  a million times before I met you, did you go, did you run, did you

Chorus Cont'd:
e|---------------------------------------------------------------------|
B|---------------------------------------------------------------------|
G|---------------------------------------------------------------------|
D|------------------12-----------------------------------10------------|
A|------------------12-----------------------------------10------------|
E|------------------10------------------------------------8------------|
  think of your son, did you know you're not the only one that tried to

Chorus Cont'd:
e|---------------------------------------------------------------------|
B|---------------------------------------------------------------------|
G|-----------------------------------------12~-------------------------|
D|-----9-----------------------------------12~-------------------------|
A|-----9-----------------------------------10~-------------------------|
E|-----7---------------------------------------------------------------|
  make a piece of coal into a diamond yeah.

Intro

Verse

Chorus

end on High G
e|----|
B|----|
G|12~-|
D|12~-|
A|10~-|
E|----|

There ya go.  This was a request so if you have any requests let us
know and we just might tab it out for you.  I hope you enjoy it as much
as we did tabbing it.
=======================================================================


Ataris albums
2003 So Long, Astoria
2001 End Is Forever
2000 Let It Burn
1999 Blue Skies, Broken Hearts...Next 12 Exits
1997 Anywhere But Here
Anywhere But Here tabs
011-2-3-4 tabbass tab
02As We Speak tabbass tab
04Hey Kid! tabbass tab
05Take Me Back tabbass tab
06Are We There Yet? tabbass tab
07Angry Nerd Rock tabbass tab
08Let It Go tabbass tab
09Lately tabbass tab
10Alone in Santa Cruz tabbass tab
11Make It Last tabbass tab
12Sleepy tabbass tab
13Four Chord Wonder tabbass tab
14Blind and Unkind tabbass tab
15Clara tabbass tab
16Myself tabbass tab
17Neilhouse tabbass tab
19Boxcar tabbass tab
20Ray tabbass tab

 

1