Search tabs:
Browse artists: 0-9 | A | B | C | D | E | F | G | H | I | J | K | L | M | N | O | P | Q | R | S | T | U | V | W | X | Y | Z
/ Ataris / Anywhere But Here (1997) / Hey Kid! guitar tab

-----------------------------------------------------------------------
			HEY KID - The Ataris
------------------------------------------------------------------------

By:  Toby Beall(smooth1567@aol.com)
Corrected by:  Aaron(punk_arg@yahoo.com)

Intro: Ska
e|-x-3-x-3---x---x----x-7-x-7-----------------------------------------|
B|-x-3-x-3---x-7-x-7--x-8-x-8--x-5-x-4--------------------------------|
G|-x-4-x-4---x-7-x-7--x-9-x-9--x-5-x-4--------------------------------|
D|-x-5-x-5---x-7-x-7--x-9-x-9--x-5-x-4--------------------------------|
A|-x-5-x-5---x-5-x-5--x-7-x-7--x-3-x-2--------------------------------|
E|-x-3-x-3---x---x----------------------------------------------------|

Intro Cont'd:  Ska
e|-x-3-x-3---x---x----x---x-------------------------------------------|
B|-x-3-x-3---x-7-x-7--x-4-x-4--x-5-x-5--------------------------------|
G|-x-4-x-4---x-7-x-7--x-4-x-4--x-5-x-5--------------------------------|
D|-x-5-x-5---x-7-x-7--x-4-x-4--x-5-x-5--------------------------------|
A|-x-5-x-5---x-5-x-5--x-2-x-2--x-3-x-3--------------------------------|
E|-x-3-x-3---x---x----------------------------------------------------|

Bass does this little thing:  (2x)
G|--------------------------------------------------------------------|
D|--------7-7--7-7--5-4-----------------------------------------------|
A|--5-5--5-5--9-9--3-2------------------------------------------------|
E|-3-3----------------------------------------------------------------|

VERSE: Same as intro, play 4X

Chorus: (4x)
e|--------------------------------------------------------------------|
B|--------------------------------------------------------------------|
G|----7-9-5-----------------------------------------------------------|
D|--5-7-9-5-----------------------------------------------------------|
A|--5-5-7-3-----------------------------------------------------------|
E|--3-----------------------------------------------------------------|

Bridge:
e|--------------------------------------------------------------------|
B|--------------------------------------------------------------------|
G|--12-12\\-11-11/-12-11-7--5-5\\-4-4/-5-5------------------------------|
D|--12-12\\-11-11/-12-11-7--5-5\\-4-4/-5-5------------------------------|
A|--10-10\\--9--9/-10--9-5--3-3\\-2-2/-3-3------------------------------|
E|--------------------------------------------------------------------|

=======================================================================


Ataris albums
2003 So Long, Astoria
2001 End Is Forever
2000 Let It Burn
1999 Blue Skies, Broken Hearts...Next 12 Exits
1997 Anywhere But Here
Anywhere But Here tabs
011-2-3-4 tabbass tab
02As We Speak tabbass tab
04Hey Kid! tabbass tab
05Take Me Back tabbass tab
06Are We There Yet? tabbass tab
07Angry Nerd Rock tabbass tab
08Let It Go tabbass tab
09Lately tabbass tab
10Alone in Santa Cruz tabbass tab
11Make It Last tabbass tab
12Sleepy tabbass tab
13Four Chord Wonder tabbass tab
14Blind and Unkind tabbass tab
15Clara tabbass tab
16Myself tabbass tab
17Neilhouse tabbass tab
19Boxcar tabbass tab
20Ray tabbass tab

 

1