Search tabs:
Browse artists: 0-9 | A | B | C | D | E | F | G | H | I | J | K | L | M | N | O | P | Q | R | S | T | U | V | W | X | Y | Z
/ Ataris / Anywhere But Here (1997) / Ray guitar tab

=======================================================================
			Ray... - The Ataris
=======================================================================

By:  Gary(TheAtaris07@aol.com)

/- slide

Verse:
e|--------------------------------------------------------------------|
B|--------------------------------------------------------------------|
G|-----------------------------------5--------------------------------|
D|4----------------------------------5---------4----------------------|
A|4----------------------------------3---------4----------------------|
E|2--------------------------------------------2----------------------|
     Sometimes I sit and think about yesterday, of all those simple

e|--------------------------------------------------------------------|
B|--------------------------------------------------------------------|
G|------------5---------------7------------------------5--------------|
D|------------5---------------7-4----------------------5--------------|
A|------------3---------------5-4----------------------3--------------|
E|------------------------------2-------------------------------------|
  words that I didn't even say, I just back and wonder why

Chorus:  (Fast strumming)
e|--------------------------------------------------------------------|
B|--------------------------------------------------------------------|
G|------------------5------------------------7------------------------|
D|-------------4----5-------------4----------7------------4-----------|
A|-------------4----3-------------4----------5------------4-----------|
E|-------------2------------------2-----------------------2-----------|
  I wonder why everything is just bought and sold and why everyone

e|--------------------------------------------------------------------|
B|--------------------------------------------------------------------|
G|5------------------------------------------------5------------------|
D|5-----------8---------------------------4--------5----------4-------|
A|3-----------8---------------------------4--------3----------4-------|
E|------------6---------------------------2-------------------2-------|
  listens to what they're told, no matter what you do you'll never

e|--------------------------------------------------------------------|
B|--------------------------------------------------------------------|
G|----7----------------------5----------------------------------------|
D|----7---------4------------5-----8----------------------------------|
A|----5---------4------------3-----8----------------------------------|
E|--------------2------------------6----------------------------------|
  get ahead and to everyone else you're just better off dead.

Repeat Verse:
Sometimes I sit and watch you on t.v.
and I just think about how cruel it would be
to call your family at a quarter til four
Ray doesn't live here anymore, anymore

Repeat Chorus:
Survey says
Survey says go
Survey says

Outro:
e|--------------------------------------------------------------------|
B|--------------------------------------------------------------------|
G|--------------------------------------------------------------------|
D|8-8-8-8-8--8-8-8-8-8--8-8--8-8--8-8-8-8-8/--------------------------|
A|8-8-8-8-8--8-8-8-8-8--8-8--8-8--8-8-8-8-8/--------------------------|
E|6-6-6-6-6--6-6-6-6-6--6-6--6-6--6-6-6-6-6/--------------------------|

Pretty *** easy song.  Well thanks to Mike@theataris.com for once
again.  This tab is only found on The Complete Ataris Guitar Tablature
web page.
=======================================================================


Ataris albums
2003 So Long, Astoria
2001 End Is Forever
2000 Let It Burn
1999 Blue Skies, Broken Hearts...Next 12 Exits
1997 Anywhere But Here
Anywhere But Here tabs
011-2-3-4 tabbass tab
02As We Speak tabbass tab
04Hey Kid! tabbass tab
05Take Me Back tabbass tab
06Are We There Yet? tabbass tab
07Angry Nerd Rock tabbass tab
08Let It Go tabbass tab
09Lately tabbass tab
10Alone in Santa Cruz tabbass tab
11Make It Last tabbass tab
12Sleepy tabbass tab
13Four Chord Wonder tabbass tab
14Blind and Unkind tabbass tab
15Clara tabbass tab
16Myself tabbass tab
17Neilhouse tabbass tab
19Boxcar tabbass tab
20Ray tabbass tab

 

1