Search tabs:
Browse artists: 0-9 | A | B | C | D | E | F | G | H | I | J | K | L | M | N | O | P | Q | R | S | T | U | V | W | X | Y | Z
/ Ataris / So Long, Astoria (2003) / In This Diary guitar tab

intro

E-------
B-------
G-2----7
D-2----7
A-0----5
E-------


verse (x2)

E-----------------------------
B-----------------------------
G-----------7--------7--7--7-7
D--4--2--7--7--4--2--7--7--7-7
A--4--2--7--5--4--2--5--4--5-4
E--2--0--5-----2--0-----------

pre chorus

E-----
B-----
G-4--7
D-4--7
A-2--5
E-----

chorus (x2)

E---------------------
B---------------------
G-----------7--------7
D--4--2--7--7--4--2--7
A--4--2--7--5--4--2--5
E--2--0--5-----2--0---

interlude (similar to intro other than that not sure)

order:

intro
verse x2
pre chorus
chorus x2
verse x2
pre chorus
chorus x2
interlude
chorus x4?


Ataris albums
2003 So Long, Astoria
2001 End Is Forever
2000 Let It Burn
1999 Blue Skies, Broken Hearts...Next 12 Exits
1997 Anywhere But Here
So Long, Astoria tabs
01So Long, Astoria tabbass tab
02Takeoffs and Landings tabbass tab
03In This Diary tabbass tab
04My Reply tabbass tab
05Unopened Letter to the World tabbass tab
06The Saddest Song tabbass tab
07Summer '79 tabbass tab
08The Hero Dies in This One tabbass tab
09All You Can Ever Learn Is What You Already Know tabbass tab
10The Boys of Summer tabbass tab
11Radio #2 tabbass tab
12Looking Back on Today tabbass tab
13Eight of Nine tabbass tab

 

1