Search tabs:
Browse artists: 0-9 | A | B | C | D | E | F | G | H | I | J | K | L | M | N | O | P | Q | R | S | T | U | V | W | X | Y | Z
/ Ataris / So Long, Astoria (2003) / Summer '79 guitar tab

By:travoltas_kid@hotmail.com

verse: "our last day of summer 1979..."
e|---------------------------------------------------------------------|
B|---------------------------------------------------------------------|
G|--------------------5--------7--------4-----------------5--------7---|
D|--5--------2--------5--------7--------4--------2--------5--------7---|
A|--5--------2--------3--------5--------2--------2--------3--------5---|
E|--3--------0-----------------------------------0---------------------|

verse: (2nd gt.)
e|---------------------------------------------|
B|----8--------5--------8-------->>pick-slide--|
G|------7-0------4--------7-0------------------|
D|-----------------5---------------------------|
A|---------------------------------------------|
E|---------------------------------------------|

*as for the 2nd verse
e|-----------------------------------------------------------------------|
B|--8--------------------------------------------------------------------|
G|----7...--------------5--------7--------4-----------------5--------7---|
D|-----------5/2--------5--------7--------4--------2--------5--------7---|
A|-----------5/2--------3--------5--------2--------2--------3--------5---|
E|-----------3/0-----------------------------------0---------------------|

chorus: "we are the champions..."
e|------------------------------------|
B|------------------------------------|
G|-------5----7---------------5----7--|
D|--2----5----7----5--4--2----5----7--|
A|--2----3----5----5--4--2----3----5--|
E|--0--------------3--2--0------------|

bridge: "sneak out of your window..."
e|---------------------------------------------------|
B|---------------------------------------------------|
G|--5--------7--------------------------5--------7---|
D|--5--------7--------5--------2--------5--------7---|
A|--3--------5--------5--------2--------3--------5---|
E|--------------------3--------0---------------------|


=order=
verse x2
chorus x2
verse x1
chorus x2
bridge x1
verse x2
chorus x4


Ataris albums
2003 So Long, Astoria
2001 End Is Forever
2000 Let It Burn
1999 Blue Skies, Broken Hearts...Next 12 Exits
1997 Anywhere But Here
So Long, Astoria tabs
01So Long, Astoria tabbass tab
02Takeoffs and Landings tabbass tab
03In This Diary tabbass tab
04My Reply tabbass tab
05Unopened Letter to the World tabbass tab
06The Saddest Song tabbass tab
07Summer '79 tabbass tab
08The Hero Dies in This One tabbass tab
09All You Can Ever Learn Is What You Already Know tabbass tab
10The Boys of Summer tabbass tab
11Radio #2 tabbass tab
12Looking Back on Today tabbass tab
13Eight of Nine tabbass tab

 

1