Search tabs:
Browse artists: 0-9 | A | B | C | D | E | F | G | H | I | J | K | L | M | N | O | P | Q | R | S | T | U | V | W | X | Y | Z
/ Atreyu / The Curse (2004) / This Flesh a Tomb guitar tab

Played in dropped C-CGCFAD

~-Let Ring
`-Pick Scrape
/-Slide

intro (guitar 1)
D :------------------------------------------------------
A :------------------------------------------------------
F :------------------------------------------------------
c :7-7-7-7-7-7-7-7---------------------------------------
G :4-4-4-4-4-4-4-4---------------------------------------
C :4-4-4-4-4-4-4-4---------------------------------------

verse (both guitars) I feel eye lashes on my cheek.........
D :-----------------------------------------------------------
A :-----------------------------------------------------------
F :-----------------------------------------------------------
c :4-4-4-4-4-4-4-4--4-4--4-4-4-4-4-4-4-4-4-4-4-4--4-4--4-4-4-4
G :4-4-4-4-4-4-4-4--4-4--4-4-4-4-4-4-4-4-4-4-4-4--4-4--4-4-4-4
C :4-4-4-4-4-4-4-4--4-4--4-4-4-4-4-4-4-4-4-4-4-4--4-4--4-4-4-4

                                                                               2x
D :-----------------------------------------------------------------
A :-----------------------------------------------------------------
F :1111111111111111-1111-111111119-9-9-9-9-9-9-9--14-14--14-14-14-14
c :-----------------------------------------------------------------
G :9-9-9-9-9-9-9-9--9-9--9-9-9-9-7-7-7-7-7-7-7-7--12-12--12-12-12-12
C :-----------------------------------------------------------------

  (guitar 1) I\\'m taking blood oaths.........
D :----------------------------------------------------------------------------
A :----------------------------------------------------------------------------
F :----------------------------------------------------------------------------
c :--------------------------------------------------------------------------0~
G :------4------------------4-----------------0------------------0-----------0~
C :0-4-4----4-xxxxxxx0-4-4-----4-xxxxxxx0-0-0----0-xxxxxxx0-0-0-----0-xxxxxxx0~

  (guitar 2)-plays same as beginning of guitar 1                                     2x
D :--------------------------------------------------------------------------
A :-----10-9-----------10-9------------10-9----------10-9---------12-10-9-10~
F :6-------------6--------------6---------------6------------6---------------
c :--------------------------------------------------------------------------
G :--------------------------------------------------------------------------
C :--------------------------------------------------------------------------

  (both guitars) chorus-And I\\'ll never need to see the sun again......
D :-----------------------------------------------------------------------------
A :-------------------------------------3~-------------------------------3~-----
F :-------------------------------------2~-------------------------------2~-----
c :````````````4-4--2-2--4-4--7-7---0-0-0~------4-4--2-2--4-4--9-9---0-0-0~-----
G :````````````4-4--2-2--4-4--7-7---0-0-0~------4-4--2-2--4-4--9-9---0-0-0~-----
C :------------4-4--2-2--4-4--7-7---0-0-0~------4-4--2-2--4-4--9-9---0-0-0~-----
                             kill me slowly.......
D :------------------------------------------------
A :-------------------------3~---------------------
F :-------------------------2~---------------------
c :4-4--2-2--4-4--7-7---0-0-0~------2-2-2-2-2-2-2-2
G :4-4--2-2--4-4--7-7---0-0-0~------2-2-2-2-2-2-2-2
C :4-4--2-2--4-4--7-7---0-0-0~------2-2-2-2-2-2-2-2

verse-2x
chorus-2x

  breakdown-(both guitars)........I\\'ll never be the same......
D :---------------------------------------------------------------------
A :---------------------------------------------------------------------
F :-----------7~-------6~----6/5--5/6~------9/6~------7~------6-----6/5-
c :4~-------------------------------------------------------------------
G :4~---------5~-------4~----4/3--3/4~------7/4~------5~------4-----4/3-
C :4~-------------------------------------------------------------------

 fingerpick-it looks confusing when it\\'s written down so, i\\'ll just put the primary notes there.
D :--------------------------------------------------------------------------
A :--------------------------------------------------------------------------
F :--------------------------------------------------------------------------
c :7-0-4\\"\\"\\"\\"\\"\\"\\"\\"\\"\\"\\"\\"\\"7-0-2-\\"\\"\\"\\"\\"\\"\\"\\"\\"\\"\\"\\"\\"7-0-4\\"\\"\\"\\"\\"\\"\\"\\"\\"\\"\\"\\"\\"11-0-7\\"\\"\\"\\"\\"\\"\\"\\"\\"\\"\\"\\"\\"
G :--------------------------------------------------------------------------
C :--------------------------------------------------------------------------

D :-------------------------------------------------------------------------
A :-------------------------------------------------------------------------
F :-------------------------------------------------------------------------
c :7-0-4\\"\\"\\"\\"\\"\\"\\"\\"\\"\\"\\"\\"\\"7-0-2\\"\\"\\"\\"\\"\\"\\"\\"\\"\\"\\"\\"\\"7-0-4-\\"\\"\\"\\"\\"\\"\\"\\"\\"\\"\\"\\"\\"7-0-2\\"\\"\\"\\"\\"\\"\\"\\"\\"\\"\\"\\"\\"
G :-------------------------------------------------------------------------
C :-------------------------------------------------------------------------

  (guitar 1)end part-And I feel immortal...........
D :----------------------------------------------------------------
A :----------------------------------------------------------------
F :----------------------------------------------------------------
c :0-0-0-0-0-0-0-0-2-2-2-2-2-2-2-2-4-4-4-4-4-4-4-4-2-2-2-2-2-2-2-2-
G :0-0-0-0-0-0-0-0-2-2-2-2-2-2-2-2-4-4-4-4-4-4-4-4-2-2-2-2-2-2-2-2-
C :0-0-0-0-0-0-0-0-2-2-2-2-2-2-2-2-4-4-4-4-4-4-4-4-2-2-2-2-2-2-2-2-

  (guitar 2)                                                                 4x
D :-----------------------------------------------------------------------
A :-----------------------------------------------------------------------
F :11-11-11-11-11-11-11-11-13-13-13-13-13-13-14-13-9-9-9-9-9-9-9-9-7-7-6-6
c :-----------------------------------------------------------------------
G :9--9--9--9--9--9--9--9--11-11-11-11-11-11-12-11-7-7-7-7-7-7-7-7-5-5-4-4
C :-----------------------------------------------------------------------

D :--------------------------------------------------------
A :--------------------------------------------------------
F :--------------------------------------------------------
c :0~------------------------------------------------------
G :0~------------------------------------------------------
C :0~------------------------------------------------------

then some acoustic thing i didn\\'t bother to tab out.


Atreyu albums
2004 The Curse
2002 Suicide Notes and Butterfly Kisses
The Curse tabs
02Bleeding Mascara tabbass tab
03Right Side of the Bed tabbass tab
04This Flesh a Tomb tabbass tab
05You Eclipsed by Me tabbass tab
06The Crimson tabbass tab
07The Remembrance Ballad tabbass tab
08An Interlude tabbass tab
09Corseting tabbass tab
10Demonology and Heartache tabbass tab
11My Sanity on the Funeral Pyre tabbass tab
12Nevada's Grace tabbass tab
13Five Vicodin Chased With a Shot of Clarity tabbass tab

 

1