Search tabs:
Browse artists: 0-9 | A | B | C | D | E | F | G | H | I | J | K | L | M | N | O | P | Q | R | S | T | U | V | W | X | Y | Z
/ / / guitar tab

Song: Deanne The Arsonist
Artist: Atreyu
Album: Suicide Notes And Butterfly Kisses
Date: January 5th, 2003
Tabbed By: Rob French (UrukHai17@aol.com)

**Everything in this tab has been transcribed as I hear it only.**

Tuning: Drop C
* - palm mute
^ - double pick
# - let ring
/ - bend

-Drum Intro-

-Guitar 1 Intro 1-
D|------------------------------------------------------------------------|
A|------------------------------------------------------------------------|
F|------------------------------------------------------------------------|
C|-0-12-0-12-0-12-0--0-12-0-12-0-12-0--0-12-0-12-0-12-0--0-12-0-12-0-12-0-| (x3)
G|------------------------------------------------------------------------|
C|------------------------------------------------------------------------|
   ^    ^    ^    ^  ^    ^    ^    ^  ^    ^    ^    ^  ^    ^    ^    ^

-Guitar 2 Intro 1-  (comes in after Guitar 1 plays Intro 1x)
D|------------------------------------------------------------------------|
A|------------------------------------------------------------------------|
F|------------------------------------------------------------------------|
C|-5-----------------1-----------------8-----------------3----------------|
G|-5-----------------1-----------------8-----------------3----------------|
C|-5-----------------1-----------------8-----------------3----------------|
   #                 #                 #                 #

_____________________________________________________________________________________

-Guitar 1 Intro-
D|-------------------------------------|    |-------------------------------------|
A|-------------------------------------|    |-------------------------------------|
F|-12--10-8--5-7-8-7-0-0-2-3-5-3-2---0-|    |-12-10-8--10-12-10---15-14-12-10-12--| (x2)
C|---------------------------------3---|    |-------------------------------------|
G|-------------------------------------|    |-------------------------------------|
C|-------------------------------------|    |-------------------------------------|


-Guitar 2 Intro 2-
D|-----------------------------------------------------------------|
A|-----------------------------------------------------------------|
F|-----------------------------------------------------------------|
C|-5-5-5-5-5-5-5-5-1-1-1-1-1-1-1-1-8-8-8-8-8-8-8-8-3-3-3-3-3-3-3-3-|  (x4)
G|-5-5-5-5-5-5-5-5-1-1-1-1-1-1-1-1-8-8-8-8-8-8-8-8-3-3-3-3-3-3-3-3-|
C|-5-5-5-5-5-5-5-5-1-1-1-1-1-1-1-1-8-8-8-8-8-8-8-8-3-3-3-3-3-3-3-3-|


_____________________________________________________________________________________

-Guitar 1 & 2 Verse 1 Main-
D|-------------------------------------------------------------------------------------|
A|-------------------------------------------------------------------------------------|
F|-------------------------------------------------------------------------------------|
C|-5-5--5-5-5--5-5-5--5-5-5--5-1-1--1-1-1--1-1-1--1-1-1--1-3-3--3-3-3--3-3-3--3-3-3--3-| (x2)
G|-5-5--5-5-5--5-5-5--5-5-5--5-1-1--1-1-1--1-1-1--1-1-1--1-3-3--3-3-3--3-3-3--3-3-3--3-|
C|-5-5--5-5-5--5-5-5--5-5-5--5-1-1--1-1-1--1-1-1--1-1-1--1-3-3--3-3-3--3-3-3--3-3-3--3-|


-Guitar 1 Verse 1 Ending-                  -Guitar 2 Verse 1 Ending-
D|---------------------------------|       |---------------------------------|
A|---------------------------------|       |---------------------------------|
F|---------------------------------|       |---------------------------------|
C|-7-7-7-7-7-7-7-7-8-8-8-8-8-8-8-8-| (x2)  |-0-0-0-0-0-0-0-0-1-1-1-1-1-1-1-1-| (x2)
G|-7-7-7-7-7-7-7-7-8-8-8-8-8-8-8-8-|       |-0-0-0-0-0-0-0-0-1-1-1-1-1-1-1-1-|
C|-5-5-5-5-5-5-5-5-6-6-6-6-6-6-6-6-|       |-0-0-0-0-0-0-0-0-1-1-1-1-1-1-1-1-|

"Coward, the next time you want to *** me over, stab me in the front..."


_____________________________________________________________________________________

-Guitar 1 Intro 2 (Repeat)-
D|-------------------------------------|    |-------------------------------------|
A|-------------------------------------|    |-------------------------------------|
F|-12--10-8--5-7-8-7-0-0-2-3-5-3-2---0-|    |-12-10-8--10-12-10---15-14-12-10-12--| (x2)
C|---------------------------------3---|    |-------------------------------------|
G|-------------------------------------|    |-------------------------------------|
C|-------------------------------------|    |-------------------------------------|


-Guitar 2 Intro 2 (Repeat)-
D|-----------------------------------------------------------------|
A|-----------------------------------------------------------------|
F|-----------------------------------------------------------------|
C|-5-5-5-5-5-5-5-5-1-1-1-1-1-1-1-1-8-8-8-8-8-8-8-8-3-3-3-3-3-3-3-3-|  (x4)
G|-5-5-5-5-5-5-5-5-1-1-1-1-1-1-1-1-8-8-8-8-8-8-8-8-3-3-3-3-3-3-3-3-|
C|-5-5-5-5-5-5-5-5-1-1-1-1-1-1-1-1-8-8-8-8-8-8-8-8-3-3-3-3-3-3-3-3-|


_____________________________________________________________________________________

-Guitar 1 & 2 Verse 2 Main-
D|-------------------------------------------------------------------------------------|
A|-------------------------------------------------------------------------------------|
F|-------------------------------------------------------------------------------------|
C|-5-5--5-5-5--5-5-5--5-5-5--5-1-1--1-1-1--1-1-1--1-1-1--1-3-3--3-3-3--3-3-3--3-3-3--3-| (x2)
G|-5-5--5-5-5--5-5-5--5-5-5--5-1-1--1-1-1--1-1-1--1-1-1--1-3-3--3-3-3--3-3-3--3-3-3--3-|
C|-5-5--5-5-5--5-5-5--5-5-5--5-1-1--1-1-1--1-1-1--1-1-1--1-3-3--3-3-3--3-3-3--3-3-3--3-|


-Guitar 1 Verse 2 Ending-                  -Guitar 2 Verse 2 Ending-
D|---------------------------------|       |---------------------------------|
A|---------------------------------|       |---------------------------------|
F|---------------------------------|       |---------------------------------|
C|-7-7-7-7-7-7-7-7-8-8-8-8-8-8-8-8-| (x2)  |-0-0-0-0-0-0-0-0-1-1-1-1-1-1-1-1-| (x2)
G|-7-7-7-7-7-7-7-7-8-8-8-8-8-8-8-8-|       |-0-0-0-0-0-0-0-0-1-1-1-1-1-1-1-1-|
C|-5-5-5-5-5-5-5-5-6-6-6-6-6-6-6-6-|       |-0-0-0-0-0-0-0-0-1-1-1-1-1-1-1-1-|


-Guitar 1 & 2 Verse 2 Ending (Play last time through only)-
D|-------------------------|
A|-------------------------|
F|-------------------------|
C|-0-000-0-000-1-111-1-111-|
G|-0-000-0-000-1-111-1-111-|
C|-0-000-0-000-1-111-1-111-|
     ***   ***   ***   ***

"No one could have their moments free from your withering touch..."

_____________________________________________________________________________________

-Guitar 1 & 2 Pre-Bridge-
D|--------------|
A|--------------|
F|--------------|
C|-00---10-12---|
G|-00-8-------8-|
C|-00-----------|
   **         #


-Guitar 1 Breakdown 1-
D|------------------------------------------------------|
A|------------------------------------------------------|
F|------------------------------------------------------|
C|-0-7-0-10-8-7--0-7-0-8-7----0-7-0-10-8-7--0-7-0-8-7---|  (x2)
G|-------------------------8--------------------------8-|
C|------------------------------------------------------|


--Guitar 2 Breakdown 1-
D|---------------------------------------------|
A|------------------------------------------18-|
F|---------------------------------------------|  (x2)
C|-00-0000--00-0-00--00-0000--00-0-00--0000----|
G|-00-0000--00-0-00--00-0000--00-0-00--0000----|
C|-00-0000--00-0-00--00-0000--00-0-00--0000----|
                                            //

"Can you taste my blood, you knew that this would kill me..."

_____________________________________________________________________________________

-Guitar 1 & 2 Bridge 1-
D|---------------------------------------------------|
A|---------------------------------------------------|
F|---------------------------------------------------|
C|-6-6-6-6-6-6-6-6-1-1-1-1-1-1-1-1-4-4-4-4-4-4-4-4-0-|  (x2)
G|-6-6-6-6-6-6-6-6-1-1-1-1-1-1-1-1-4-4-4-4-4-4-4-4-0-|
C|-6-6-6-6-6-6-6-6-1-1-1-1-1-1-1-1-4-4-4-4-4-4-4-4-0-|
                                                   #

"Burnt down my world, you killed my hope..."

_____________________________________________________________________________________

-Guitar 1 Solo-

-Guitar 2 Solo Backup (Play 2nd and 3rd time through solo-
D|-------------|
A|-------------|
F|-------------|
C|-3---5---8---|  (x2)
G|-1---3---6---|
C|-1---3---6---|
   #   #   #

-Guitar 1 & 2 Solo-

_____________________________________________________________________________________

-Guitar 1 & 2 Pre-Bridge-
D|--------------|
A|--------------|
F|--------------|
C|-00---10-12---|
G|-00-8-------8-|
C|-00-----------|
   **         #


-Guitar 1 Breakdown 2-
D|------------------------------------------------------|
A|------------------------------------------------------|
F|------------------------------------------------------|
C|-0-7-0-10-8-7--0-7-0-8-7----0-7-0-10-8-7--0-7-0-8-7---|  (x2)
G|-------------------------8--------------------------8-|
C|------------------------------------------------------|


-Guitar 2 Breakdown 2-
D|---------------------------------------------|        |---------|
A|------------------------------------------18-|        |---------|
F|---------------------------------------------|  (x2)  |---------|  (Play last time through)
C|-00-0000--00-0-00--00-0000--00-0-00--0000----|        |-00-0000-|
G|-00-0000--00-0-00--00-0000--00-0-00--0000----|        |-00-0000-|
C|-00-0000--00-0-00--00-0000--00-0-00--0000----|        |-00-0000-|
                                            //

"*** right, I am still pissed..."                       "*** off, goodbye."


albums
tabs

 

1