Search tabs:
Browse artists: 0-9 | A | B | C | D | E | F | G | H | I | J | K | L | M | N | O | P | Q | R | S | T | U | V | W | X | Y | Z
/ / / guitar tab

Artist Ė Beck
Album - Sea Change
Song Ė Guess Iím Doing Fine


Standard Tuning (EADGBe)

Chords: I just named them regular because it is the same form for all.

   E    F#m  G    G#m  A    D
-|-0----0----0----0----0----0--|-
-|-0----0----0----0----0----0--|-
-|-1----2----4----4----6----7--|-
-|-2----4----5----6----7----7--|-
-|-2----4----5----6----7----5--|-
-|-0----2----3----4----5-------|-


Intro (Acoustic)

-|-----------------------------------------------------------
-|-------0-------------0-------------0--------------0--------
-|---1-----1---1---2-----2---2---4-----4---4----4-----4---4--
-|-----2-----2-------4-----4-------6-----6--------5-----5----
-|-----------------------------------------------------------
-|-0-------------2-------------4--------------3--------------


-------------0-----------------0~-|-
-------0-------0------0--------0~-|-
---2-----2-------2------2------1~-|-
-----4-----4-------4------4ó---2~-|-
-------------------------------2~-|-
-2-----------------------------0~-|-



Verse

E         A              G#m
Thereís a bluebird at my window

E       A                 G#m    
I canít hear the songs he sings

E       A           G#m  
All the je-we-ls in heaven

E          A                G#m     
They donít look the same to me

Bridge

G    A    
So I wade the tide that turns

G       F#m             E      
So that I can leave the past behind

Chorus

G#m       A             E     
It's only lies that Iím Living

G#m       A              E
It's only tears that Iím crying

G#m       A        E     D#  
It's only you Iím lo-oo-sing

A               E     F#m   G   F#m
Guess Iím doing fi-i-i-ne


Verse (Same chords as above)

All the battlements are empty
And the Moon is laying low
Yellow Roses in the graveyard
Got no time to watch them grow

Bridge (Same chords as above)

Now I bade a friend farewell
I can do Whatever pleases me

Chorus (same as above)

Itís only lies that Iím living
Itís only tears that Iím crying
Itís only you that Iím losing
Guess Iím doing fine

F#m                     E 
Press my face up to the window

F#m                   E
To see how warm it is inside

F#m                           E    D 
See the things that Iíve been mi-i-ssing

A                E     F#m   G   F#m
Missing all this ti-i-i-ime

Chorus (same as above)

Itís only lies that Iím living
Itís only tears that Iím crying
Itís only you that Iím losing
Guess Iím doing fine


albums
tabs

 

1