Search tabs:
Browse artists: 0-9 | A | B | C | D | E | F | G | H | I | J | K | L | M | N | O | P | Q | R | S | T | U | V | W | X | Y | Z
/ / / guitar tab

It's in open B tuning, so it'll sound a bit floppy but if you listen the song has that floppy fret-buzz used to sound like citar resonation so it all works out.

Eb----------------------------------------------
B--7----12--4----8----5-4-----------------------
Gb-0----0---0----0----0-0-----------------------
B--7----12--4----8----5-4-----------------------
Gb-0----0---0----0----0-0-----------------------
B-----------------------------------------------

Eb----------------------------------------------
B--7----12--4----8----5-4-----------------------
Gb-0----0---0----0----0-0-----------------------
C--7----12--4----8----5-4-----------------------
Gb-0----0---0----0----0-0-----------------------
C-----------------------------------------------


  Haven't got alot to learn
Eb----------------------------------------------
B--4-----------5-------4------------------------
Gb-0-----------0-------0------------------------
B--4-----------5-------4------------------------
Gb-0-----------0-------0------------------------
B-----------------------------------------------

  And my eyes they stray again
Eb----------------------------------------------
B--4------5---------------4---------------------
Gb-0------0---------------0---------------------
B--4------5---------------4---------------------
Gb-0------0---------------0---------------------
B-----------------------------------------------

  Looking for a satellite
Eb----------------------------------------------
B--4-------------5-------4----------------------
Gb-0-------------0-------0----------------------
B--4-------------5-------4----------------------
Gb-0-------------0-------0----------------------
B-----------------------------------------------

  In the rays of heaven again
Eb----------------------------------------------
B--4------5---------------4---------------------
Gb-0------0---------------0---------------------
B--4------5---------------4---------------------
Gb-0------0---------------0---------------------
B-----------------------------------------------


chorus:

   Theres no other ending Sunday sun
Eb------------------------------------------
B---0---------0-------------0-----0---------
Gb--3---------2-------------1-----0---------
B---0---------0-------------0-----0---------
Gb--3---------2-------------1-----0---------
B-------------------------------------------

   Yesterday is ending Sunday sun
Eb------------------------------------------
B---0---------0-------------0-----0---------
Gb--3---------2-------------1-----0---------
B---0---------0-------------0-----0---------
Gb--3---------2-------------1-----0---------
B-------------------------------------------

ending:

Eb---------------------------
B--5--4----------------------
Gb-0--0----------------------
B--5--4----------------------
Gb-0--0----------------------
B----------------------------


albums
tabs

 

1