Search tabs:
Browse artists: 0-9 | A | B | C | D | E | F | G | H | I | J | K | L | M | N | O | P | Q | R | S | T | U | V | W | X | Y | Z
/ / / guitar tab

interpret: jeff beck
title: the golden age
album: sea change

normal tuning
tabbed by tobieatworld

Intro:

Guitar 1:
     E             F#m  Pre  A    Pre
                        Part      Part
--0-0-0-0-0-0-0----2-2-2-0--0-0-0---------------------
--0-0-0-0-0-0-0----2-2-2-0--2-2-2-0-------------------
--1-1-1-1-1-1-1----2-2-2-0--2-2-2-0-------------------
--2-2-2-2-2-2-2----4-4-4-0--2-2-2-0-------------------     you have to play
--2-2-2-2-2-2-2----4-4-4----0-0-0---------------------     the pre parts very
--0-0-0-0-0-0-0----2-2-2----0-0-0---------------------     fast
Guitar2:
------4---7---4----0-------0--------0--------------------------5--------
-----------------------2------------------------------------------------
--------------------------------2------1--------------------------------
------------------------------------------------------------------------
------------------------------------------------------------------------
------------------------------------------------------------------------


albums
tabs

 

1