Search tabs:
Browse artists: 0-9 | A | B | C | D | E | F | G | H | I | J | K | L | M | N | O | P | Q | R | S | T | U | V | W | X | Y | Z
/ Blind Guardian / Somewhere Far Beyond (1992) / Time What Is Time guitar tab

Blind Guardian
Time what is time
Somewhere Far Beyond



{{      - tremolo picking
hb      - half bend
fb      - full bend
hbr     - half bend then release
fbr     - full bend then release
A.H     - artificial harmonic
/ \     - slide up/down


GTR1
|----------------|----------|-------------|-------|
|----------------|-------0--|-------------|-------|
|--------0-------|-----0----|-------------|-------|
|------2---2-----|---2------|-----0-----0-|-----0-|
|----2-------2-2-|-3--------|---2-----2---|---2---|
|--0-------------|----------|-3-----2-----|-1-----|

GTR2/GTR3(GTR2 plays the upper and GTR3 the lower note)
|--------|--------0-2-3-2h3p2-0---|--------|-------|------------|
|--------|------0---------------3-|--------|-------|------------|
|-4-2-4~-|-(4)--------------------|-4-2-4~-|-2-4-5-|-4h5p4-2-4~-|
|--------|------------------------|--------|-4-5-7-|-5h7p5-4-5~-|  GTR3
|--------|------------------------|--------|-------|------------|
|--------|------------------------|--------|-------|------------|

|------------|------------|
|------------|------------|
|-(4)-5-4-5~-|-4-2--------|
|-(5)-7-5-7~-|-5-4-5-4-3~-|
|------------|-----7-5-5~-|  GTR3
|------------|------------|

|---------0-|-(0)--3-2-|-3--3p2p0-|-(0)--5-3---2-3-2-|
|-3--3--3---|----------|----------|----------3-------|
|-----------|----------|----------|------------------|
|-----------|----------|----------|------------------|
|-----------|----------|----------|------------------|
|-----------|----------|----------|------------------|

|------|----------------|-----------------------------------|
|-3~-1-|-0-1-0h1p0------|-----------------------------------|
|------|-----------2-0~-|------2/4--4/5--5/7-7-5-4h5p4-2-4~-|
|------|----------------|-5/7--4/5--5/7--7/9-9-7-5h7p5-4-5~-|  GTR3
|------|----------------|-7/9-------------------------------|
|------|----------------|-----------------------------------|

|---|--------------------|-----------|----7-7-5-|-7---8--8--8--10-10-|
|---|--------------------|-------5-5-|-5--8-8-7-|-8--10-10-10--12-12-|
|-7-|-7-5-4--4-5-4h5p4/2-|-4hb-4-----|----------|--------------------|
|---|--------------------|-----------|----------|--------------------|
|---|--------------------|-----------|----------|--------------------|
|---|--------------------|-----------|----------|--------------------|

|-10--8-7-5-|-7-5h7p5-3---3--------|------------|
|-12-10-8-7-|-8-7h8p7-5-7-5-7--5-3-|-5-3-1-3-1~-|
|-----------|-----------7---7--5-4-|-5-4-2-4-2~-|
|-----------|----------------------|------------|
|-----------|----------------------|------------|
|-----------|----------------------|------------|

Intro 2
|---------------------|----------------------------|
|---------------------|----------------------------|
|---------------------|----------------------------|
|---------------------|----------------------------|
|-5----------5--------|----------------------------|
|-3-0-0-0-0--3--0-0-0-|-0-0-0-0--0-0--0-0-0-0--0-0-|
    P.M....     .....   ..........................

|---------------------|----------------------------|
|---------------------|----------------------------|
|---------------------|----------------------------|
|---------------------|-------------3--------------|
|-5----------5--------|-------------1--------------|
|-3-0-0-0-0--3--0-0-0-|-0-0-0-0--0-----------------|
    P.M....     .....   ..........

Intro Solo(2 GTRS)
|--------------------|-----------|------------------|
|-15fb--(15)r-p13p12-|-13--15-13-|-12h13p12/10-10fb-|
|--------------------|-----------|------------------|
|--------------------|-----------|------------------|
|--------------------|-----------|------------------|
|--------------------|-----------|------------------|

|-------------------------|-----------|-------15-14-|
|-------12-13-15-13-12-13-|-12~-------|-15fb--------|
|-12-14-12-14-16-14-12-14-|-----14-12-|-14----12-11-|
|-14-16-------------------|-----------|-------------|
|-------------------------|-----------|-------------|
|-------------------------|-----------|-------------|

|-15--14h15p14--------------|----------14-15-17-19-22-|-22fb~-|
|--------------17--15h17p15-|----15-17----------12-15-|-15fb~-|
|-12--11h12p11--------------|-17-------11-12-14-------|-------|
|--------------14--12h14p12-|----12-14----------------|-------|
|---------------------------|-15----------------------|-------|
|---------------------------|-------------------------|-------|

Riff A
                   (Fill 1)                         (Fill 1)
|-------------|----|------|---|-------|------------|-----------------|
|-------------|----|------|---|-------|------------|-----------------|
|-------------|----|------|---|-------|------------|-----------------|
|-5-----------|-4--|-5----|---|-5-----|--4---------|-5---------------|
|-3-----------|-2--|-3----|-2-|-3-----|--2---------|-3---------------|
|-------------|----|------|-0-|-------|------------|-----------------|

Riff B                                                        Fill 1
|------------------------|-----------------------|         |-----------|
|------------------------|-----------------------|         |------8-8~-|
|------------------------|-----------------------|         |----9------|
|------------------4---5-|-----------------5---4-|         |-10--------|
|------------------2---3-|-----------------3---2-|         |-----------|
|-0--0--0-0-0-0--0---0---|0--0--0-0-0-0--0---0---|         |-----------|
  P.M.............   .    ................   .


Riff C
|-----------------------------|---------------------|
|-----------------------------|---------------------|
|---------5---------7---------|--8---------7-----8~-|
|---------5---------7---------|--8---------7-----8~-|
|-0-0-0-0---0-0-0-0---0-0-0-0-|----0-0-0-0---0-0----|
|-----------------------------|---------------------|
  P.M....   .......   .......     ........   ...

Chorus Riff(play twice)
|---|---|---|---|---|---|---|---|---|---|---|---|---|---|---|---|
|---|---|---|---|---|---|---|---|---|---|---|---|---|---|---|---|
|---|---|---|---|---|---|---|---|---|---|---|---|---|---|---|---|
|-2-|---|---|---|---|---|---|---|-2-|---|---|---|-5-|---|---|---|
|-0-|---|-3-|---|-5-|---|-2-|---|-0-|---|-3-|---|-3-|---|-2-|---|
|---|---|-1-|---|-3-|---|-0-|---|---|---|-1-|---|---|---|-0-|---|
time...  ...time...   ...wish...  ...tell...  ...hurts... ...know...  ...we...  ...machines


|-----------------|------------------|-----------------|-----------------|
|-----------------|------------------|-----------------|-----------------|
|-----------------|------------------|-----------------|-----------------|
|-2---------------|------------------|-----------------|-----------------|
|-0-0-0-0-0-0-0-0-|-0-0-0-0-0-0-0-0--|-3---------------|-----------------|
|-----------------|------------------|-1-1-1-1-1-1-1-1-|-1-1-1-1-1-1-1-1-|
    P.M............................      ...............................]

|-----------------|------------------|-----------------|-----------------|
|-----------------|------------------|-----------------|-----------------|
|-----------------|------------------|-----------------|-----------------|
|-5---------------|------------------|-----------------|-----------------|
|-3-3-3-3-3-3-3-3-|-3-3-3-3-3-3-3-3--|-2---------------|-----------------|
|-----------------|------------------|-0-0-0-0-0-0-0-0-|-0-0-0-0-0-0-0-0-|
    P.M............................      ...............................]

|-----------------|------------------|-----------------|-----------------|
|-----------------|------------------|-----------------|-----------------|
|-----------------|------------------|-----------------|-----------------|
|-2---------------|------------------|-----------------|-----------------|
|-0-0-0-0-0-0-0-0-|-0-0-0-0-0-0-0-0--|-3---------------|-----------------|
|-----------------|------------------|-1-1-1-1-1-1-1-1-|-1-1-1-1-1-1-1-1-|
    P.M............................      ...............................]

|---|---|---|---|
|---|---|---|---|
|---|---|---|---|
|---|---|---|---|
|-5-|---|-6-|---|
|-3-|---|-4-|---|



Riff D
let ring (slight distortion)
|---------------|-------0--|
|-------0-------|-----0----|
|-----2---2-----|---2------|
|---2-------2-2-|-3--------|
|-0-------------|----------|
|---------------|----------|


Riff E
|-------------------------------------|-------------------------------------|
|-------------------------------------|-------------------------------------|
|-------------------------------------|-------------------------------------|
|-7-------7-----7---7-----------------|-------------------------------------|
|-5-5-5-5-5-5-5-5-5-5-5-5-5-5-5-5-5-5-|-5-------5-----5---5-----------------|
|-------------------------------------|-6-6-6-6-6-6-6-6-6-6-6-6-6-6-6-6-6-6-|
   P.M...   .     .   ...............     .....   ...   .   ...............]




Riff F
|-------------------------------------|-------------------------------------|
|-------------------------------------|-------------------------------------|
|-------------------------------------|-------------------------------------|
|-9-------9-----9---9-----------------|-------------------------------------|
|-7-7-7-7-7-7-7-7-7-7-7-7-7-7-7-7-7-7-|-7-------7-----7---7-----------------|
|-------------------------------------|-8-8-8-8-8-8-8-8-8-8-8-8-8-8-8-8-8-8-|
   P.M...   .     .   ...............     .....   ...   .   ...............]

Riff G
|------|-----|---------|--------|
|------|-----|---------|--------|
|------|-----|---------|--------|
|-2--4-|-(4)-|-4--2--5-|-(5)--7-|
|-0--2-|-(2)-|-2--0--3-|-(3)--5-|
|------|-----|---------|--------|


Lead
|-15fbr------|-(15)--12---|-13~--15fb---|-15--13------|
|------------|------------|-------------|-------------|
|------------|------------|-------------|-------------|
|------------|------------|-------------|-------------|
|------------|------------|-------------|-------------|
|------------|------------|-------------|-------------|

|------------|------------|-------------|-------------|
|------------|------------|-------------|-------------|
|-9----------|---------9--|-------------|-------------|
|-7--7-7-7-7-|-7-7-7-7-7--|-10--7-7-7-7-|-7-7-7-7-10--|
|------------|------------|-8-----------|---------8---|
|------------|------------|-------------|-------------|
    P.M...............         .................]

|-12-13-12~--|-(12)-------|----12-13----|-12----------|
|------------|---------12-|-13----------|----15-13----|
|------------|------14----|-------------|-------------|
|------------|------------|-------------|-------------|
|------------|------------|-------------|-------------|
|------------|------------|-------------|-------------|

|------------|------------|-------------|-------------|
|------------|------------|-------------|-------------|
|-9----------|---------9--|-------------|-------------|
|-7--7-7-7-7-|-7-7-7-7-7--|-10--7-7-7-7-|-7-7-7-7-10--|
|------------|------------|-8-----------|---------8---|
|------------|------------|-------------|-------------|
    P.M...............         .................]

|------------|-------------|-------------------|-------------|
|-15~--------|-15-13-12-13-|-(13)-12h13p12-----|-------------|
|------------|-------------|---------------14~-|-(14)--------|
|------------|-------------|-------------------|-------------|
|------------|-------------|-------------------|-------------|
|------------|-------------|-------------------|-------------|

|------------|-------------|-------------------|-------------|
|------------|-------------|-------------------|-------------|
|-7----------|---------7---|-------------------|-------------|
|-5--5-5-5-5-|-5-5-5-5-5---|-7-----------------|---------7---|
|------------|-------------|-5--5-5-5-5--------|-5-5-5-5-5---|
|------------|-------------|-------------------|-------------|
    P.M...............         .........................]



|------------|-13~-12-13--|-15fb-------|-15~-----19-|
|-15~-14-15--|------------|------------|------------|
|------------|------------|------------|------------|
|------------|------------|------------|------------|
|------------|------------|------------|------------|
|------------|------------|------------|------------|

|------------|------------|------------|------------|
|------------|------------|------------|------------|
|------------|------------|------------|------------|
|-7----------|----------7-|-9----------|----------9-|
|-5--5-5-5-5-|-5-5-5-5--5-|-7--7-7-7-7-|-7-7-7-7--7-|
|------------|------------|------------|------------|
    P.M...............         .................]

|-20~--------|-(20)-19-20-|-20fb--20----|-19~--20-----|
|------------|------------|-------------|-------------|
|------------|------------|-------------|-------------|
|------------|------------|-------------|-------------|
|------------|------------|-------------|-------------|
|------------|------------|-------------|-------------|


|------------|------------|-------------|-------------|
|------------|------------|-------------|-------------|
|-9----------|---------9--|-------------|-------------|
|-7--7-7-7-7-|-7-7-7-7-7--|-10--7-7-7-7-|-7-7-7-7-10--|
|------------|------------|-8-----------|---------8---|
|------------|------------|-------------|-------------|
    P.M...............         .................]

|-17~--------|-(17)-------|-----15fbr---|-15----------|
|------------|--------17--|-18----------|-----13------|
|------------|------------|-------------|-------------|
|------------|------------|-------------|-------------|
|------------|------------|-------------|-------------|
|------------|------------|-------------|-------------|


|------------|------------|-------------|-------------|
|------------|------------|-------------|-------------|
|-9----------|---------9--|-------------|-------------|
|-7--7-7-7-7-|-7-7-7-7-7--|-10--7-7-7-7-|-7-7-7-7-10--|
|------------|------------|-8-----------|---------8---|
|------------|------------|-------------|-------------|
    P.M...............         .................]

|------------|-------------|-------------------|-------------|
|-15~--------|-15-13-12-13-|-(13)-12h13p12-----|-------------|
|------------|-------------|---------------14~-|-(14)--------|
|------------|-------------|-------------------|-------------|
|------------|-------------|-------------------|-------------|
|------------|-------------|-------------------|-------------|


|------------|-------------|-------------------|-------------|
|------------|-------------|-------------------|-------------|
|-7----------|---------7---|-------------------|-------------|
|-5--5-5-5-5-|-5-5-5-5-5---|-7-----------------|---------7---|
|------------|-------------|-5--5-5-5-5--------|-5-5-5-5-5---|
|------------|-------------|-------------------|-------------|
    P.M...............         .........................]




|------------|-13~-12-13--|-15fb-------|-15~--------|
|-15~-14-15--|------------|------------|------------|
|------------|------------|------------|------------|
|------------|------------|------------|------------|
|------------|------------|------------|------------|
|------------|------------|------------|------------|


|------------|------------|------------|------------|
|------------|------------|------------|------------|
|------------|------------|------------|------------|
|-7----------|----------7-|-9----------|----------9-|
|-5--5-5-5-5-|-5-5-5-5--5-|-7--7-7-7-7-|-7-7-7-7--7-|
|------------|------------|------------|------------|
    P.M...............         .................]

That was much to tab... enjoy!


Blind Guardian albums
2002 A Night at the Opera
1998 Nightfall In The Middle-Earth
1995 Imaginations From The Other Side
1992 Somewhere Far Beyond
1990 Tales From The Twilight World
1989 Follow the Blind
1988 Battalions Of Fear
Somewhere Far Beyond tabs
01Time What Is Time tabbass tab
03Black Chamber tabbass tab
04Theatre of Pain tabbass tab
05The Quest For Tanelorn tabbass tab
06Ashes To Ashes tabbass tab
07The Bard's Song - In The Forest tabbass tab
09Somewhere Far Beyond tabbass tab

 

1