Search tabs:
Browse artists: 0-9 | A | B | C | D | E | F | G | H | I | J | K | L | M | N | O | P | Q | R | S | T | U | V | W | X | Y | Z
/ / / guitar tab

Blind Melon - 2 X 4
Submitted By: face of today
EMail: tom.meisner@ns.sympatico.ca


intro:
   C5    A5      G5      A5           *=10
---------------------------------------------|
---------------------------------------------|
---------------------------------------------|
--*--X--7--X--5--X--7-7-7--X-X---------|
--*--X--7--X--5--X--7-7-7--X-X---------|    PLAY 4 X
--8--X--5--X--3--X--5-5-5--X-X---------|
      /S      L      I      D      E      S\


i'm talking... i'm talking to myself more

    C     A        G       A            *=10
--8--X--5--X--3--X--5-5-5--X-X---------|
--8--X--5--X--3--X--5-5-5--X-X---------|
--9--X--6--X--4--X--6-6-6--X-X---------|
--*--X--7--X--5--X--7-7-7--X-X---------|    PLAY 4 X
--*--X--7--X--5--X--7-7-7--X-X---------|
--8--X--5--X--3--X--5-5-5--X-X---------|
      /S      L      I      D      E      S\

RIFF 1
A
Needle, fatal

G                                                           A      G
Someone's pouring warm gravy all over me

       A
And you see that synthetic therapy

G                      A
Don't you know it seems to be so unappealing

  G            A
But oh what a feeling

-THEN-
RIFF 2
     A            G A          G   A          G   A           G F           F#    G
---0-0-0-0----0-0-0-0----0-0-0-0----0-0-0-0---1-1-1-1---2--3-3--
---2-2-2-2----2-2-2-2----2-2-2-2----2-2-2-2---1-1-1-1---2--3-3--
---2-2-2-2----2-2-2-2----2-2-2-2----2-2-2-2---2-2-2-2---3--4-4--
---2-2-2-2----2-2-2-2----2-2-2-2----2-2-2-2---3-3-3-3---4--5-5--
---0-0-0-0----0-0-0-0----0-0-0-0----0-0-0-0---3-3-3-3---4--5-5--
------------3-----------3-----------3-----------3-1-1-1-1---2--3-3--

I wish that you would stop spitting when you're talking to me
RIFF 3
-----------------------------------------------------------
----------3-1--------3-1--------3-1----------------------
--2-0-2------2-0-2-------2-0-2-----------------5-7--7--
----------------------------------------5-5-5-5--5-7--7--
----------------------------------------5-5-5-5--3-5--5--
----------------------------------------3-3-3-3-----------

A
And inside, air dry

G                                   A                   G
I might want to go another way

                            C5     A5    G5     A5                   G
But you see now I'm too pale to get out

               A                              G     C5     A5    G5     A5
Into the lovely light of day

G                  A
     Oh, I'll do anything that you say

G                   A
     Oh, I'l do anything that you say

RIFF 2
But I wush that you would stop spitting when you're talking to me
RIFF3


INTRO RIFF
I'm talking to myself

1X1
Man to man
Stand to stand
2X4
Talkin' to myself

OUTRO RIFF

e---8~~5-3--7~~5-3-8~~5-3--0-2-0-2-2-0 LIKE THAT....


albums
tabs

 

1