Search tabs:
Browse artists: 0-9 | A | B | C | D | E | F | G | H | I | J | K | L | M | N | O | P | Q | R | S | T | U | V | W | X | Y | Z
/ / / guitar tab

Title: New Life
Artist: Blind Melon
By: John Wishart (wishart@brunnet.net)

A Decent Song......
This is only for one guitar, although two are used in the song.  
Use tremolo to make it sound accurate to the CD. Enjoy!

E  +--------------------------------------------------------+
B  |--5---5----------5-----------3--3------10----10---------|
G  |---6---6-7p6-----6\4--------4----------11----11\------|
D  |-------------7------------------------------------------|
A  |--------------------------------------------------------|
E  +5--------------5-----------3------3/10------------------+


E  +--------------------------------------0-----------------+
B  |--5--5--------------5--------3--3-------0---------------|
G  |---6---7--6h7p6------6\4------4--4--------2p1---4/------|
D  |--------7-------7-----------------------------2---------|
A  |--------------------------------------------------------|
E  +5-----------------5--------3--------0-------------------+


E  +-----5---5-5-5555\--------------------------------------+
B  |----7-7------6666\----------5-------8-------------------|
G  |---7-----------------------6 6------9-------------------|
D  |7------------------------7------------------------------|
A  |5-------------------------------------------------------|
E  +----------------------5---------5/8---------------------+


E  +--------------------------------------------------------+
B  |--------------------------------------------------------|
G  |--------------------------------------------------------|
D  |--------------------------------------------------------|
A  |a chorus is G A E F G A-E F D Dm------------------------|
E  +--------------------------------------------------------+


albums
tabs

 

1