Search tabs:
Browse artists: 0-9 | A | B | C | D | E | F | G | H | I | J | K | L | M | N | O | P | Q | R | S | T | U | V | W | X | Y | Z
/ Blue Oyster Cult / Fire of Unknown Origin (1981) / Burnin' for You guitar tab

Author/Artist: Blue Oyster Cult
Title: Burnin' For You
Transcribed by: Tim Herscovitch
Email: apowerchord@aol.com

EADGBE Tuning (Standard)

Intro/Main Riff
-----------------

e|----------------3-------------------------------------------------------------|
B|---5--3-h5p3-----------5--3-h5p3----------------------------------------------|
G|-------------5-------------------5--------------------------------------------|
D|------------------------------------------------------------------------------|
A|------------------------------------------------------------------------------|
E|------------------------------------------------------------------------------|


Verses
-------

e|--12--12---12--12---10--10----------------------------------------------------|
B|--13--13---12--12---10--10---10---12------------------------------------------|
G|--14--14---12--12---10--10---10---12------------------------------------------|
D|-----------------------------10---12------------------------------------------|
A|------------------------------------------------------------------------------|
E|------------------------------------------------------------------------------|


Prechorus
----------

("Burn out the day... burn out the night...")

e|------------------------------------------------------------------------------|
B|------------------------------------------------------------------------------|
G|------------------------------------------------------------------------------|
D|---7\6/7--5--3-3--3---5-5---7\6/7--5--3-3--3---5-5----------------------------|
A|---7\6/7--5--3-3--3---5-5---7\6/7--5--3-3--3---5-5----------------------------|
E|---5\4/5--3--1-1--1---3-3---5\4/5--3--1-1--1---3-3----------------------------|


("...I can't see no reason to put up a fight...")

e|------------------------------------------------------------------------------|
B|------------------------------------------------------------------------------|
G|---5---------5-5--------------------------------------------------------------|
D|---5---------5-5----------3-3--x-x--3-3---------------------------------------|
A|---3--0---0--3-3--0---0---3-3--x-x--3-3---------------------------------------|
E|--------3-----------3-----1-1--x-x--1-1---------------------------------------|


("I'm livin' for givin' the devil his due")

e|-----------------------5------------------------------------------------------|
B|-----------------------6------------------------------------------------------|
G|---5-5--4-4--2-2-------7------------------------------------------------------|
D|---5-5--4-4--2-2--5-5--7------3--5-5------------------------------------------|
A|---3-3--2-2--0-0--5-5--5------3--5-5------------------------------------------|
E|------------------3-3--5----0-1--3-3------------------------------------------|


Chorus
-------

("And I'm burnin', I'm burnin', I'm burnin' for you")

e|------------------------------------------------------------------------------|
B|------------------------------------------------------------------------------|
G|------------------------------------------------------------------------------|
D|---7\6/7--5--3-3--3---5-5---7\6/7--5--3-3--3---5-5----------------------------|
A|---7\6/7--5--3-3--3---5-5---7\6/7--5--3-3--3---5-5----------------------------|
E|---5\4/5--3--1-1--1---3-3---5\4/5--3--1-1--1---3-3----------------------------|

Peace
-Tim


Blue Oyster Cult albums
2005 Singles Collection
2001 The Curse of the Hidden Mirror
1998 Heaven Forbid
1985 Club Ninja
1983 The Revolution by Night
1981 Fire of Unknown Origin
1980 Cultosaurus Erectus
1977 Spectres
1976 Agents of Fortune
1974 Secret Treaties
1973 Tyranny and Mutation
1972 Blue Oyster Cult
Fire of Unknown Origin tabs
02Burnin' For You tabbass tab
03Veteran Of The Psychic Wars tabbass tab
04Sole Survivor tabbass tab
05Heavy Metal: The Black And Silver tabbass tab

 

1