Search tabs:
Browse artists: 0-9 | A | B | C | D | E | F | G | H | I | J | K | L | M | N | O | P | Q | R | S | T | U | V | W | X | Y | Z
/ Bob Dylan / World Gone Wrong (1993) / Lone Pilgrim guitar tab

Lone Pilgrim
By B.F. White and Adgar M. Pace
Released on World Gone Wrong (1993)
Tabbed by Eyolf ěstrem

Capo 2nd fret (original key D major)

* denotes a bass run: e-f : x32010 x33010


--------------------------------------------------------------------------------

  C   G   C  Dm/f C   F   C   F   C       F           G   C       Csus4   C
  .   .   |   .   .   .   |   .   .   .   |   .   .   .   |   .   .   .   |
|-------------------------------------0---------------------------------------
|-5---3---1---3---1---1---1---3---1---1---1-----1-1---0---1-------1-------1---
|-5---4---0---2---0---2---0---2---0---0---2-----2-2---0---0-------0-------0---
|-5---5---2---3---2---3---2---3---2---2---3-----3-3---0---2-------3-------2---
|---------------------3---3-----------3-------------------3-------3-------3---
|-----------------------------------------------------------------------------

Csus4 C   F      C               F    G       C
I    came to the place where the lone pilgrim lay
                           G     C/g   G
And pensively stood by his tomb
F    C  Csus4 C         F     G         C
When in a low whisper I heard something say:
              G          C      Csus4  C
How sweetly I sleep here alone.

F   C  Csus4    C            F    G       C
The tempest may howl and the loud thunder roar
        *     C          G
And gathering storms may arise
F G C    Csus4 C           F    G     C
But calm is my feeling, at rest is my soul
          *       G             C
The tears are all wiped from my eyes.

  C   F   C       Dm  F   C       G   F   C           F   C
  .   .   |   .   .   .   |   .   .   .   |   .   .   .   |
|-------------------------------------------------------------
|-5---1---1-------3---1---1-------0---1---1-------1---1---1---
|-5---2---0-------2---2---0-------0---2---0-------0---2---0---
|-5---3---2-------3---3---2-------0---3---2-------2---3---2---
|---------------------------------------------------------3---
|-------------------------------------------------------------

C        F  G  C         F      G       C
The call of my master compelled me from home
                       G    C/g  G
No kindred or relative nigh
F G C                     F     G     C
I   met the contagion and sank to the tomb
        *       G          C     Csus4   C
My soul flew to mansion on high.

  C   G   C   Dm  F       C
  .   .   |   .   .   .   |
|---------------------0-------
|-5---1---1---3---1---1---1---
|-5---2---0---2---2---2---0---
|-5---3---2---3---3---3---2---
|-----------------------------
|-----------------------------

C       F  G   C         F   G         C
Go tell my companion and children most dear
                           G    C/g  G
To weep not for me now I'm gone
F G C    Csus4     C              F    G    C
The same hand that led me through seas most severe
              G        C      Csus4  C
Has kindly assisted me home.


Bob Dylan albums
2003 Masked and Anonymous
2001 Love and Theft
1997 Time Out of Mind
1993 World Gone Wrong
1992 Good as I Been to You
1990 Under the Red Sky
1989 Oh Mercy
1988 Down in the Groove
1986 Knocked Out Loaded
1985 Empire Burlesque
1983 Infidels
1981 Shot of Love
1980 Saved
1979 Slow Train Coming
1978 Street Legal
1976 Desire
1975 The Basement Tapes
1975 Blood on the Tracks
1974 Planet Waves
1973 Dylan
1970 New Morning
1970 Self Portrait
1969 Nashville Skyline
1967 John Wesley Harding
1966 Blonde on Blonde
1965 Highway 61 Revisited
1965 Bringing It All Back Home
1964 Another Side of Bob Dylan
1964 The Times They Are A-Changin'
1963 The Freewheelin' Bob Dylan
1962 Bob Dylan
World Gone Wrong tabs
02Love Henry tabbass tab
04Blood in My Eyes tabbass tab
05Broke Down Engine tabbass tab
09Jack-A-Roe tabbass tab
10Lone Pilgrim tabbass tab

 

1