Search tabs:
Browse artists: 0-9 | A | B | C | D | E | F | G | H | I | J | K | L | M | N | O | P | Q | R | S | T | U | V | W | X | Y | Z
/ / / guitar tab

Bob Marley - Sun is Shining
Tabbed By: Rasta-Redemption
Email: sicilianherbsman@aol.com

Tuning: Standard (E A D G B E)

This one should be played with a fairly slow beat. First recorded in '72.


E|---------------------------------------------------------------------------||
B|--------1-1---1--0-1-0----------------1--1--0-1--------------------------------------||
G|---2-2-------------------2---2-2-2-2------------2----------------------------------||
D|---------------------------------------------------------------------------||
A|---------------------------------------------------------------------------||
E|---------------------------------------------------------------------------||


E|-------0--1-----3-1--5------0-1----3-1--5--------------------------------------------||
B|-----3------3-----------3-3-----3-----------------------------------------------||
G|---------------------------------------------------------------------------||
D|---------------------------------------------------------------------------||
A|---------------------------------------------------------------------------||
E|---------------------------------------------------------------------------||


albums
tabs

 

1