Search tabs:
Browse artists: 0-9 | A | B | C | D | E | F | G | H | I | J | K | L | M | N | O | P | Q | R | S | T | U | V | W | X | Y | Z
/ / / guitar tab

Artist :Bob marley
song :Trenchtown rock


e|------3---3--|------2---2--|------1---1--|------0---0--|
B|------2---2--|------3---3--|------1---1--|------1---1--|
G|---0--0---0--|------2---2--|------2---2--|------0---0--|   X2
D|------0---0--|---0--0---0--|---3--3---3--|------2---2--|
A|------0---0--|-------------|-------------|---3--3---3--|
E|------3---3--|-------------|-------------|-------------|


e|------0---0--|------0---0--|------3---3--|------1---1--|
B|------1---1--|------1---1--|------2---2--|------1---1--|
G|------0---0--|------0---0--|---0--0---0--|------2---2--|   X2
D|------2---2--|------2---2--|------0---0--|---3--3---3--|
A|---3--3---3--|---3--3---3--|------0---0--|-------------|
E|-------------|-------------|------3---3--|-------------|

							                                            _______
e|------0---0--|------0---0--|------0---0--|------0---0--|	|
B|------1---1--|------1---1--|------1---1--|------1---1--|	|
G|------2---2--|------2---2--|------2---2--|------2---2--|	|
D|---2--2---2--|------2---2--|---2--2---2--|------2---2--|	|
A|------0---0--|---0--0---0--|------0---0--|---0--0---0--|	|
E|-------------|-------------|-------------|-------------|	|
					                  | 		                                                X2     |
					                  |			                                                       |
e|------1---1--|------1---1--|------0---0--|------0---0--|	|
B|------3---3--|------3---3--|------1---1--|------1---1--|	|
G|------2---2--|------2---2--|------2---2--|------2---2--|	|
A|------0---0--|------0---0--|---2--2---2--|---2--2---2--|	|
D|---0--0---0--|---0--0---0--|------0---0--|------0---0--|	|
E|-------------|-------------|-------------|-------------|______|


albums
tabs

 

1