Search tabs:
Browse artists: 0-9 | A | B | C | D | E | F | G | H | I | J | K | L | M | N | O | P | Q | R | S | T | U | V | W | X | Y | Z
/ / / guitar tab

Artist:	Bruce Springsteen
Song:	Im on fire
Tabbed by: 	Morij@ofir.dk
----------------------------------------------------------

CAPO on the 2nd FRET!

INTRO: (repeat once)    E  E  E  E  C#m7  C#m7  C#m7

Hey little girl is your daddy home
E

Did he go away and leave you all alone
                                       A

I got a bad desire      Ohhhhhhhhh, I'm on fire
              C#m7      A        B         E


Tell me now baby is he good to you
E

Can he do to you the things that I do
                                      A

I can take you higher   Ohhhhhhhhhh, I'm on fire
                C#m7    A         B         E (Repeat intro)


Sometimes it's like someone took a knife baby edgy and dull and cut a
                    A

six-inch valley through the middle of my soul
E                           C#m7


At night I wake up with the sheets soaking wet and a
E

Freight train running through the middle of my head

Only you     can cool my desire      Ohhhhhhhhh, I'm on fire (Repeat twice)
        A                  C#m7      A        B         E


CHORD FORMATIONS:   (CAPO on 2nd FRET!)
-----------------
E     x x 2 4 5 2     (Like a D2 formation)
C#m7  x x 2 4 2 4
A     x 4 2 2 5 2
B     x x 4 2 5 2

   Picking pattern for the chords:

     E             C#m7            A             B
E----------2-------------4---------------2-------------2----------------------
B------5-----5-------2-----2---------5-----5-------5-----5--------------------
G--------4-------------4---------------2-------------2------------------------
D----2-------------2-----------------------------4----------------------------
A----------------------------------4------------------------------------------
E-----------------------------------------------------------------------------


albums
tabs

 

1