Search tabs:
Browse artists: 0-9 | A | B | C | D | E | F | G | H | I | J | K | L | M | N | O | P | Q | R | S | T | U | V | W | X | Y | Z
/ Burzum / Burzum/Aske (1992) / My Journey to the Stars guitar tab

Burzum - My Journey To The Stars

Tabbed by RyKnowe

Tuning - Standard (EADGBe)

 Fade in|Riff.1                4times
E|-----|---------------------------|
B|-----|---------------------------|
G|-----|-------555------------666--|
D|-----|----333---333444---444-----|
A|-----|-333------------444--------|
E|-(1)-|---------------------------|

  Fill.1        x2              x2               x2
E|----------------|---------------|----------------|
B|----------------|---------------|----------------|
G|----------------|---------------|----------------|Played
D|--333333-663663-|-666666-996996-|-555555-888885--|2times
A|-(333333-333333)|(666666-666666)|(555555-555555)-|
E|----------------|---------------|----------------|



  Fill.1b                       x2              2times
E|-----------556655--556655-------|-------------------|
B|--------666------77------776677-|-------------------|
G|-----555------------------------|-------------------|
D|--333---------------------------|-8888888888888888--|
A|--------------------------------|-6666666666666666--|
E|--------------------------------|-------------------|


  Riff.2                  8times
E|-------------------------------|
B|-------------------------------|
G|-------------------------------|
D|--333333663663--555555885885---|
A|-(333333333333)(555555555555)--|
E|-------------------------------|


  Fill.2                        x4 Fill.2b                   x4
E|--------------------------------|----------------------------|
B|--------------------------------|----------------------------|
G|--------------------------------|----------------------------|
D|--------------------------------|--------555-----------------|
A|--444444446646644/666686666866--|--666666333666888888888888--|
E|--------------------------------|--444444---444666666666666--|


Repeat Riff.2


  Fill.3                                     4times
E|-------------------------------------------------|
B|-------------------------------------------------|
G|-------------------------------------------------|
D|--3----------------2------3----------------------|
A|--1----------------0------1------3------4--------|
E|---------------------------------1------2--------|








  Fill.4                                      4times
E|-------------------------|-------------------------|
B|---------2---------------|--------2----------------|
G|--3-3-3-3-3--4-4-44/66\4-|-3-3-3-3-3-4-6-6-6\5-55--|
D|--3-3-3------4-4-44/66\4-|-3-3-3-------6-6-6\5-55--|
A|--1-1-1------2-2-22/44\2-|-1-1-1-------4-4-4\3-33--|
E|-------------------------|-------------------------|

  Fill.5                    4times
E|---------------------------------|
B|---------------------------------|
G|---------------------------------|
D|--3333-33334444------------1111--|
A|--1111---------333333334444------|
E|---------------------------------|


Repeat Fill.2

Repeat Fill.2b

Repeat Riff.2


                           Riff.3
E|------------------------|--------------------------------------|
B|------------------------|--------------------------------------|
G|------------------------|--------555666666/101010101010--------|
D|--6----5----3-----------|------------------------------999999--|
A|--6----5----3-33333333--|--333333------------------------------|
E|--4----3----1-----------|--------------------------------------|



  Fill.6                                                               4times
E|---------------------------|--------------------------|--------------------|
B|---------------------------|--------------------------|--------------------|
G|---------------------------|--------------------------|--------------------|
D|-----------/10101010101010-|-66666666-/10101010101010-|-44444444-44444444--|
A|--33333333-/-8-8-8-8-8-8-8-|-44444444-/-8-8-8-8-8-8-8-|-22222222-22222222--|
E|--11111111-----------------|--------------------------|--------------------|



  Fill.7 Gtr.1                                      4times
E|--------------------------------------------------------|
B|--------------------------------------------------------|
G|--------------------------------------------------------|
D|--------------------------------------------------------|
A|--888888888888-666666666666-555555555555-4444444444444--|
E|--666666666666-444444444444-333333333333-2222222222222--|
 |                                                        |
 |                                                        |
 | Gtr.2                                                  |
E|--------------------------------------------------------|
B|--------------------------------------------------------|
G|--333333556665-333333556665-333333556665-3333333556665--|
D|--------------------------------------------------------|
A|--------------------------------------------------------|
E|--------------------------------------------------------|


Repeat Fill.2

Repeat Fill.2b

Repeat Riff.2




       Fill.8                              4times
E|-----|--------------------|---------------------|
B|-----|--------------------|---------------------|
G|-----|----1--------1------|---1-----------------|
D|-----|---3-3--1---3-3---1-|--3-3---1----1---1---|
A|--3--|-------3-3-------3--|-------3-3--4-4-4-4--|
E|--1--|--1---1----1----1---|-1----1----2---2-----|



  Fill.9                          x2 Fill.9b                2times
E|----------------------------------|-----------------------------|
B|----------------------------------|-----------------------------|
G|----------------------------------|-----------------------------|
D|----------------------------------|-----------------------------|
A|--3-----3-----3----3-----3-----44-|--555555555666-555555555666--|
E|--1-111-1-111-1-11-1-111-1-111-22-|--333333333333-333333333333--|
      ...   ...   ..   ...   ...


Repeat Fill.9

Repeat Fill.8


  Fill.10                       4times
E|------------------------------------|
B|----4---4---6---6---4---4---4---4---|
G|---5-5-5-5-7-7-7-7-6-6-6-6-6-6-6-6--|
D|--3---3---5---5---4---4---4---4-----|
A|------------------------------------|
E|------------------------------------|


Burzum albums
1996 Filosofem
1994 Hvis Lyset Tar Oss
1993 Det Som Engang Var
1992 Burzum/Aske
Burzum/Aske tabs
01Feeble Screams from Forests Unknown tabbass tab
03Spell of Destruction tabbass tab
05War tabbass tab
06Crying Orc tabbass tab
07My Journey to the Stars tabbass tab
09Stemmen Fra Gaarnet tabbass tab

 

1