Search tabs:
Browse artists: 0-9 | A | B | C | D | E | F | G | H | I | J | K | L | M | N | O | P | Q | R | S | T | U | V | W | X | Y | Z
/ Burzum / Burzum/Aske (1992) / War? guitar tab

Band: Burzum
Song: War
Tabbed By: \JEB/,

Riff 1 (Intro + Verse)

Riff 1a

(first play into 1, repeat and play into 2,
repeat and play into 3, then go to Riff 1b)
                                 1&3.-----  2.-------
E-|---------|---------|---------|---------||---------||
B-|---------|---------|---------|---------||---------||
G-|---------|---------|---------|---------||---------||
D-|---------|---------|---------|---------||---------||
A-|---------|---------|---------|---------||---------||
E-|-0-7-8-0-|-5-7-0-3-|-5-0-2-3-|-0-3-5---||-5-3-2---||

Riff 1b

E-|---------|---------|---------|---------|
B-|---------|---------|---------|---------|
G-|---------|---------|---------|---------|
D-|---------|---------|---------|---------|
A-|---------|---------|-------4-|-----5---|
E-|-0-7-8-0-|-5-7-0-3-|-5-0-2-2-|-----3---|

Riff 2 (Chorus)

Play riffs: 2a,2b,2a,2c

Riff 2a

E-|---------|---------|---------|---------|
B-|---------|---------|---------|---------|
G-|---------|---------|---------|---------|
D-|---------|---------|---------|---------|
A-|---------|---------|---------|---------|
E-|-0-7-8-0-|-7-8-0-8-|10-01012-|-0-810---|
                       (tens and twelves, not 1 0 and 1 2)
   War...

Riff 2b

E-|---------|---------|---------|---------|
B-|---------|---------|---------|---------|
G-|---------|---------|---------|---------|
D-|---------|---------|---------|---------|
A-|---------|---------|---------|---------|
E-|-0-7-8-0-|-5-7-0-3-|-5-0-2-3-|-5-3-2---|
   War...

Riff 2c

E-|---------|---------|---------|---------|
B-|---------|---------|---------|---------|
G-|---------|---------|---------|---------|
D-|---------|---------|---------|---------|
A-|---------|---------|-------4-|-----5---|
E-|-0-7-8-0-|-5-7-0-3-|-5-0-2-2-|-----3---|
    War...

Riff 3

    1 2 3 4   1 2 3 4
E-|---------|---------|
B-|---------|---------|
G-|---------|---------|
D-|---------|---------|
A-|-22222222|-22222---|
E-|-00000000|-0000012\|

play fast     (twelve, slide down)


Burzum albums
1996 Filosofem
1994 Hvis Lyset Tar Oss
1993 Det Som Engang Var
1992 Burzum/Aske
Burzum/Aske tabs
01Feeble Screams from Forests Unknown tabbass tab
03Spell of Destruction tabbass tab
05War tabbass tab
06Crying Orc tabbass tab
07My Journey to the Stars tabbass tab
09Stemmen Fra Gaarnet tabbass tab

 

1