Search tabs:
Browse artists: 0-9 | A | B | C | D | E | F | G | H | I | J | K | L | M | N | O | P | Q | R | S | T | U | V | W | X | Y | Z
/ Burzum / Filosofem (1996) / Dunkelheit guitar tab

Artist - Burzum
Song - Dunkelheit
Album - Filosofem
All Instruments - Varg Vikernes


Play with Distortion
Riff 1
|-----|-----------------|-----------------|
|-----|-------------0---|-----------------|
|-2---|-2---2---2-----1-|-2---2---2---4---|
|-2---|-2-2---2---2-----|-2-2---2---2---3-|
|-0---|-0---------------|-0---------------|

Repeat this one a few times (I guess 4 times is correct).


Play with Light Distortian
Riff 2
|---|--------0-----------0----------|-------0-----------0--------0-|
|---|-----0----0-------0----------0-|-----0---0-------0--------0---|
|---|---2--------2---2----------2---|---2-------2---2--------2-----|
|-2-|-2------------1----------0-----|-2-----------4--------1-------|
|-2-|-----------------------1-------|------------------------------|
|-0-|-------------------------------|------------------------------|

Repeat this one a few times (I guess 4 times is correct again).


Riff 3
This is the main riff which is used for quite the rest of the song. It's supported by a whole lot of keyboard...

|---------------------------------------|
|---------------------------------------|
|---------------------------------------|
|---------------------------------------|
|-5-5-4-4---5-5-4-2---5-5-4-4---5-5-4-2-|
|-3-3-2-2---3-3-2-0---3-3-2-2---3-3-2---|

I'm sorry, I can't figure out Riff 4, what Varg plays when he sings clean, there is Distortion, Keyboards...hard to figure out.

Lyrics:

When night falls
she cloaks the world
in impenetrable darkness.
A chill rises
from the soil
and contaminates the air
suddenly...
life has new meaning.


Burzum albums
1996 Filosofem
1994 Hvis Lyset Tar Oss
1993 Det Som Engang Var
1992 Burzum/Aske
Filosofem tabs
01Dunkelheit tabbass tab
02Jesus Dod tabbass tab

 

1