Search tabs:
Browse artists: 0-9 | A | B | C | D | E | F | G | H | I | J | K | L | M | N | O | P | Q | R | S | T | U | V | W | X | Y | Z
/ / / guitar tab

Band: Cannibal Corpse
Title: Absolute Hatred
Album: Vile
Tabber: Sqweeky

Fig. 1
[1 & 3]
|------------------------------------
|------------------------------------
|------------------------------------
|------------------------------------
|--4-3---3-4-3-----------------------
|--2-1-0-1-2-1-00000000333344441111--

[2, gtr. 1]
|------------------------------------
|------------------------------------
|------------------------------------
|--------------------------7---3-----
|--4-3---3-4-3-------5-4-------3-----
|--2-1-0-1-2-1-00004-----4---4-------

[2, gtr. 2]
|------------------------------------
|------------------------------------
|------------------------------------
|--------------------------9---------
|--4-3---3-4-3-------8-7-------8-----
|--2-1-0-1-2-1-00007-----7---7-8-----

[4]
|------------------------------------
|------------------------------------
|------------------------------------
|------------------------------------
|--4-3---3-4-3-----4-----5-3---------
|--2-1-0-1-2-1-0000--0-3-----0-1-4---


Fig. 2
|--------------------
|--------------------
|--------------------
|--5-------3---------
|--3---5---1---4-----
|--3---3-------2-----


Fig. 3
[gtr. 1]                             [end 1]
|------------------------------------|------------------------------------
|------------------------------------|------------------------------------
|------------------------------------|------------------------------------
|--55553333--------------------------|------------------------------------
|----------666633332-3-5-2-3-2-3h5p3-|----------------------------6---5---
|------------------------------------|-4444444444444h7p4-3333333-/4---3---

[gtr. 2]                             [end 1]
|------------------------------------|------------------------------------
|------------------------------------|------------------------------------
|------------------------------------|------------------------------------
|------------------------------------|------------------------------------
|------------------------------3h5p3-|-2222222222222h5p2-1111111--6---5---
|--00001111444455554-5-7-4-5-4-------|---------------------------/4---3---

[end 2, both gtrs.]
|-----------------------------------
|-----------------------------------
|-----------------------------------
|--------------------------------4--
|--6-6-6-6---------5-6-5---3---3-2--
|--4-4-4-4-4h7p4p0-3-4-3-0-1-0-1----


Fig. 4
|----------------------------------
|----------------------------------
|----------------------------------
|--4-------------------------------
|--2-------------------3-6-6---3---
|----000-0-110044330-0-1-4/4---1---

|----------------------------------
|----------------------------------
|----------------------------------
|--4-------------------------------
|--2-------------------3-6-6-6-3---
|----000-0-110044330-0-1-4-4-4-1---



Fig. 5
|-------------------------
|-------------------------
|-------------------------
|--5-------3-------1---1--
|--3---5---1---4---1---1--
|--3---3-------2----------



Fig. 6
|-------------------------------------------------------------------
|-------------------------------------------------------------------
|-------------------------------------------------------------------
|------------------111-1--------------------------------------------
|----------55552222111-1---------6-----------9---8s9-99995s8-7---7--
|--11111111--------------555522556---888855889---------------5---5--


Fig. 7
[gtr. 1]
|---------------------------------------------------------------
|---------------------------------------------------------------
|---------------------------------------------------------------
|---------------------------------------------------------/6----
|--4\3---2---2---2---2---2---2---3-3-4\3---2---2---2---2--------
|--2\1---0---0---0---0---0---0---1-1-2\1---0---0---0---0--/4----

[gtr. 2]
|---------------------------------------------------------------
|---------------------------------------------------------------
|---------------------------------------------------------------
|---------------------------------------------------------/9----
|--4\3---2---5---2---5---2---5---3-3-4\3---2---5---2---5--------
|--2\1---0--/3---0--/3---0--/3---1-1-2\1---0--/3---0--/3--/7----



Fig. 8
[1 & 3]
|-----------------------------------
|-----------------------------------
|-----------------------------------
|-----------------------------------
|-----------------------------------
|--6-5-0-6-5-0-6-5-0-6-5-0-3-5-0-0--

[2]
|-----------------------------------
|-----------------------------------
|-----------------------------------
|-----------------------------------
|--------------------------4-3------
|--6-5-0-8-6-0-6-5-0-8-6-0-2-1------

[4]
|-----------------------------------
|-----------------------------------
|-----------------------------------
|-----------------------------------
|------------------------5-5h6p5----
|--3-5-6-3-5-6-5-6-8-6-8---------5--


Fig. 9
[under solos]
[gtr. 1]
|---------------------------------------------------
|---------------------------------------------------
|---------------------------------------------------
|---------------------------------------------------
|---------------------------------------------------
|--3-0-0-0-5-0-6-0-0-0-3-0-5-0-6-0-5-0-5-0-6-0-5-0--

[gtr. 2]
|---------------------------------------------------
|---------------------------------------------------
|---------------------------------------------------
|---------------------------------------------------
|--3-------5---6-------3---5---6---5---5---6---5----
|----0-0-0---0---0-0-0---0---0---0---0---0---0---0--


Fig. 10
[3x]
|-----------------------------------
|-----------------------------------
|-----------------------------------
|-----------------------------------
|--5-----4-----3---3-----2----------
|----4-3---3-2---2---2-1---1-0-3-4--

[4]
|-----------------------------------
|-----------------------------------
|-----------------------------------
|-----------------------------------
|------------------------5-5h6p5----
|--3-5-6-3-5-6-5-6-8-6-8---------5--


albums
tabs

 

1