Search tabs:
Browse artists: 0-9 | A | B | C | D | E | F | G | H | I | J | K | L | M | N | O | P | Q | R | S | T | U | V | W | X | Y | Z
/ Children of Bodom / Hate Crew Deathroll (2003) / Chokehold (Cocked 'n' Loaded) guitar tab

Uhh I don\\\'t know why it came out like this..but..Here it is


---------------------------------------------------------------
---------------------------------------------------------------
---------------------------------------------------------------
---------------------------------------------------------------
---7h8---8p7--7---7p5---5h7----7---7h8---8p7-------------------
-0----0-----0---0-----0------0--0------0-----00--0-00-0--00-00- 

---------------------------------------------------------------
---------------------------------------------------------------
---------------------------------------------------------------
---------------------------------------------------------------
---7h8---8p7--7---7p5---5h7----7---7h8---8p7-------------------
-0----0-----0---0-----0------0--0------0-----00--0-00-0--00-00- 

-----------------------------------------------------------
-----------------------------------------------------------
-----------------------------------------------------------
--------------------------------------------------3-------- 
-2-4-5--5-4--4-4-2-2-4----------------------------1--------
-0-2-3--3-2--2-2-0-0-2-2-2-2-2-2-2-2-2-2-2-2-2 2----------- 


- - - - - - - - - - - - - - - - - - - - - - - - - - - - - - - - - - - - - - - - - - - - - - - - - - - - - 
- - - - - - - - - - - - - - - - - - - - - - - - - - - - - - - - - - - - - - - - - - - - - - - - - - - - - 
- - - - - - - - - - - - - - - - - - - - - - - - - - - - - - - - - - - - - - - - - - - - - - - - - - - - - 
- - - - - - - - - - - - - - - - - - - - - - - - - - - - - - - - - - - - - - - - - - - -- - 7 -9 - - - - 
-2- 4 -5 - -5-4 - -4 -4-2 - 2 4 - - - - - - - - - - - - - - - - - - - - - - - - -5 -7 - - - - 
-0 -2- 3- - 3-2- - 2 -2-0 - 0-2 -2-2 2-2 2-2 2-2 2-2 - - -2-2 2- - - - - - - - - - 

- - - - - - - - - - - - - - - - - - - - - - - - - - - - - - - - - - - - - - - - - - - - - - - - - - - - - 
- - - - - - - - - - - - - - - - - - - - - - - - - - - - - - - - - - - - - - - - - - - - - - - - - - - - - 
- - - - - - - - - - - - - - - - - - - - - - - - - - - - - - - - - - - - - - - - - - - - - - - - - - - - - 
- - - - - - - - - - - - - - - - - - - - - - - - - - - - - - - - - - - - - - - - - - - -3- - 3- - - - - 
-2- 4 -5 - -5-4 - -4 -4-2 - 2 4 - - - - - - - - - - - - - - - - - - - - - - -1 - -1 - - - - - 
-0 -2- 3- - 3-2- - 2 -2-0 - 0-2 -2-2 2-2 2-2 2-2 2-2 - - 2-2 2- - - - - - - - - - 


- - - - - - - - - - - - - - - - - - - - - - - - - - - - - - - - - - - 
- - - - - - - - - - - - - - - - - - - - - - - - - - - - - - - - - - - 
- - - - - - - - - - - - - - - - - - - - - - - - - 11* - - - - - - -
- - - - - - - - - - - - - - - - - - - - - - - - - - - - - - - - - - -
-2- 4 -5 - -5-4 - -4 -4-2 - 2 4 - - - - - - - - - - - - - -
-0 -2- 3- - 3-2- - 2 -2-0 - 0-2 -2-2 - - - - - - - - - - 

- - - - - - - - - - - - - - - - - - - - - - - - - - - - - - - - - - - - - - - - - - - - - - - - - - - - - -
- - - - - - - - - - - - - - - - - - - - - - - - - - - - - - - - - - - - - - - - - - - - - - - - - - - - - -
- - - - - - - - - - - - - - - - - - - - - - - - - - - - - - - - - - - - - - - - - - - - - - - - - - - - - -
- - - - - - - - - - - - - - - - - - - - - - - - - - - - - - - - - - - - - - - - - - - - - - - - - - - - - -
- - 7h8- - 8p7- - 7- - 7p5- -5h7 - - 7- - 7h8- -8p7 - - - - - - - - - - - - - - - - - -
-0 - - - -0 - - - -0 - -0 - - - -0 - - - -0 - - 0- - - -0 - - - -0 0- -0-0 0-0 - -0 0-0 0- 

- - - - - - - - - - - - - - - - - - - - - - - - - - - - - - - - - - - - - - - - - - - - - - - - - - - - - - - - - - - - - - - - - - - -  -
- - - - - - - - - - - - - - - - - - - - - - - - - - - - - - - - - - - - - - - - - - - - - - - - - - - - - - - - -- -  - - - - - - - - - -
- - - - - - - - - - - - - - - - - - - - - - - - - - - - - - - - - - - - - - - - - - - - - - - - - - - - - - - - - - - - - - - - -  - - - -
- - - - - - - - - - - - - - - - - - - - - - - - - - - - - - - - - - 9- 7- - - - - - - - - - - - - - - - 12- 10- - -  - - - - - - - -
- - 7h8- - 8p7- - 7- - 7p5- -5h7 - - 7- 10 -9 -7 - - - - 10 -9 -7 -13 -12 -10 - - - - - - 13- 12- 10- - 
0 - - - -0 - - - -0 - -0 - - - -0 - - - -0 - - - - - - - - - - - - - - - - - - - - - - - - - - - - - - - - - - - - - - - - - - - - - 

- - - - - - - - - - - - - - - - - - - - - - - - - - - - - - - - - - - - - - - - - - - - - - - - - - - - - -
- - - - - - - - - - - - - - - - - - - - - - - - - - - - - - - - - - - - - - - - - - - - - - - - - - - - - -
- - - - - - - - - - - - - - - - - - - - - - - - - - - - - - - - - - - - - - - - - - - - - - - - - - - - - -
- - - - - - - - - - - - - - - - - - - - - - - - - - - - - - - - - - - - - - - - - - - - - - - - - - - - - -
- - 7h8- - 8p7- - 7- - 7p5- -5h7 - - 7- - 7h8- -8p7 - - - - - - - - - - - - - - - - - -
-0 - - - -0 - - - -0 - -0 - - - -0 - - - -0 - - 0- - - -0 - - - -0 0- -0-0 0-0 - -0 0-0 0- 

- - - - - - - - - - - - - - - - - - - - - - - - - - - - - - - - - - - - - - - - - - - - - - - - - - - - - - - - - - - - - - - - - - - -  -
- - - - - - - - - - - - - - - - - - - - - - - - - - - - - - - - - - - - - - - - - - - - - - - - - - - - - - - - -- -  - - - - - - - - - -
- - - - - - - - - - - - - - - - - - - - - - - - - - - - - - - - - - - - - - - - - - - - - - - - - - - - - - - - - - - - - - - - -  - - - -
- - - - - - - - - - - - - - - - - - - - - - - - - - - - - - - - - - 9- 7- - - - - - - - - - - - - - - - 12- 10- - -  - - - - - - - -
- - 7h8- - 8p7- - 7- - 7p5- -5h7 - - 7- 10 -9 -7 - - - - 10 -9 -7 -13 -12 -10 - - - - - - 13- 12- 10- - 
0 - - - -0 - - - -0 - -0 - - - -0 - - - -0 - - - - - - - - - - - - - - - - - - - - - - - - - - - - - - - - - - - - - - - - - - - - - 

(continued on from above)
- - - - - - - - - - - - - - - - - - - - - - - - - - - - - - - - - - - 
- - - - - - - - - - - - - - - - - - - - - - - - - - - - - - - - - - - 
- - - - - - - - - - - - - - - - - - - - - - - - - - - - - - - - - - - 
- - - - - - - - 9-7- - - - - - - - - - - - 7-5 - - - - - - - - - 
- 10- 9- 7- - - - 10-9-7 -9 -7 -5 - - - -9- 7-5 - - - -
- - - - - - - - - - - - - - - - - - - - - - - - - - - - - - - - - - -

- - - - - - - - - - - - - - - - - - - - - - - - - - - - - - - - - - - - - - - - - - - - 
- - - - - - - - - - - - - - - - - - - - - - - - - - - - - - - - - - - - - - - - - - - - 
- - - - - - - - - - - - - - - - - - - - - - - - - - - - - - - - - - - - - - - - - - - - -
- - - - -  - - -4 - - - - - - - - - - - - - - - - - - - - - - - - - - - - - - - - - - - 
- 5 - - - - - -2- - - - - - - - - - - 7p5- - - - -7p5 - - -8~~ - - - - - - - 
- 3- - - - - - - - - - 0 -0 -0 -0 - - - - -0 -0 - - - - -0 - - - - - - - - - - - -

- - - - - - - - - - - - - - - - - - - - - - - - - - - - - - - - - - - - - - - - - - - - - - 
- - - - - - - - - - - - - - - - - - - - - - - - - - - - - - - - - - - - - - - - - - - - - - 
- - - - - - - - - - - - - - - - - - - - - - - - - - - - - - - - - - - - - - - - - - - - - - 
- 6 - - - 5 - - - - - - - - - - - - - - - - - - - - - - - - - - - - - - - - - - - - - - - 
- 4- - - -3 - - - - - - - - - - - - - - - - - - - - - - - - - - - - - - - - - - - - - - --
- - - - - - - - - 0- 0- 0- 0- 12- 10-0 -10-8-0-8 -7 -0 -7 -5 -3 - - - - -

- - - - - - - - - - - - - - - - - - - - - - - - - - - - - - - - - 
- - - - - - - - - - - -  8- 87- 75- -53 - - - - - - - - 
- - - - - - - - - 4/7- - - - - - - - - - - - - - - - - - - - - 
- - - - - -4- - - - - - - - - - - - - - - - - - - - - - - - - --
-5- - -- -2 - - - - - - - - - - - - - - - - - - - - - - - - - - 
-3 - - - - - - - - - - - - - - - - - - - - - - - - - - - - - - -

- - - - - - - - - - - - - - - - - - - - - - - - - - - - - - - - - - - - - - - - - - - - -
- - - - - - - - - - - - - - - - - - - - - - - - - - - - - - - - - - - - - - - - - - - -  
- - - - - - - - - - - - - - - - - - - - - - - - - - - - - - - - - - - - - - - - - - - - 
- 6- - - -5- - - - - - - - - -9 -7- - - - - - - - - - - - -7 -5- - - - - - - - - -
- 4- - - -3- - - 10-9 -7 - - - - 10-9 -7 -9 -7 -5 - - - - 9- 7- 5- - - -
- - - - - - - - - - - - - - - - - - - - - - - - - - - - - - - - - - - - - - - - - - - - 

- - - - - - - - - - - - - - - - - - - - - - - - - - - - - - - - - - - - - - - - - - - -
- - - - - - - - - - - - - - - - - - - - - - - - - - - - - - - - - - - - - - - - - - - - 
- - - - - - - - - - - - - - - - - - - - - - - - - - - - - - - - - - - - - - - - - - - -
- - - - - - - - - - - - - - - - - - - - - - - - - - - - - - - - - - - - - - - - - - - -
- 7- - - - - - -9h12-10- - - - - -9h10 - - - 2- 2-2 -2 -2- - - - - - -
- - - 0- 0- - - - - - - - - - - 0-0 - - - - - - - - 0- 0- 0- 0- 0- - - - - - - 

- - - - - - - - - - - - - - - - - - - - - - - - - - - -15^ -14^ - 
- - - - - - - - - - - - - - - - - - - - - - - - - - - - - - - - - - - - - 
- - - - - - - - - - - - - - - - - - - - - - - - - - - - - - - - - - - - - 
- - - - - - - - - - - - - - - - - - - - - - - - - - - - - - - - - - - - - 
- 7- - - - - - -9h12-10- - - - - -9h10 - - - - - - - - - - - -
- - - 0- 0- - - - - - - - - - - 0-0 - - - - - - - -  - - - - - - - - -

- - - - - - - - - - - - - - - - - - - - - - - - - - - - - - - - - - - - - - - - - - - - - - - - - - - - - - - - - - - - -
- - - - - - - - - - - - - - - - - - - - - - - - - - - - - - - - - - - - - - - - - - - - - - - - - - - - - - - -  - - - - -
- - - - - - - - - - - - - - - - - - - - - - - - - - - - - - - - - - - - - - - -9 - - - - 7/10- -9- - - - - -710 - 
- 7-7 7-7 -9 -9 -12 -12 -10 -10 10-10 -9 -9 -10 -10 - -7 - - - - 5/8- - -7 - - - - - 5/8- - 
- - - - - - - - - - - - - - - - - - - - - - - - - - - - - - - - - - - - - - - - - - 0-0 - - - - - - - -0 -0 -- - - - -
- - - - - - - - - - - - - - - - - - - - - - - - - - - - - - - - - - - - - - - - - - - - - - - - - - - - - - - - - -  - - -

- - - - - - - - - - - - - - - - - - - - - - - - - - - - - - - - - - - - - - - - - - - - - - - - - - - - - - - - - 
- - - - - - - - - - - - - - - - - - - - - - - - - - - - - - - - - - - - - - - - -15^ -15^ - 15^- 15^- 
- - - - - - - - - - - - - - - - - - - - - - - - - - - - - - - - - - - - - - - - - - - - - -- - - - - - - - - - - 
- 7-7 7-7 -9 -9 -12 -12 -10 -10 10-10 -9 -9 -10 -10 - - - - - - - - -- - - - -  - -- - -
- - - - - - - - - - - - - - - - - - - - - - - - - - - - - - - - - - - - - - - - - -  - - - - - - - - -- - - - --
- - - - - - - - - - - - - - - - - - - - - - - - - - - - - - - - - - - - - - - - - - - - - - - - - - - - - - - - - 

- - - - - - - - - - - - - - - - - - - - - - - - - - - - - - - - - - - - - - - - - - - - - - - - - - - - - - - - - - - -
- - - - - - - - - - - - - - - - - - - - - - - - - - - - - - - - - - - - - - - - - - - - - - - - - - - - - - - - - - -
- - - - - - - -9/10 - - - - - - - - - - - - - - - - - - - - - - - - - - - - - - - - - - - - - - - - - - - - - - - -
- - - - - - - -7/8 - - - - - - - - - - - - - - - - - - - - - - - - - -109- - - - - - -10 -9 - - - - - - - - - 
0- 0-0 -0 - - - - 0-0 -0 -0 - 0- 0-0 -0 - - -0 -0 -0 -0 -8 7 - -0-0 0- - - - - -10 -8 -7 - -  
- - - - - - - - - - - - - - - - - - - - - - - - - - - - - - - - - - - - - - - - - - - - - - - - - - - - - - - - - - - -

- - - - - - - - - - - - - - - - - - - - - - - - - - - - - - - - - - - - - - - - - - - - - - - - - - - - - 
- - - - - - - - - - - - - - - - - - - - - - - - - - - - - - - - - - - - - - - - - - - - - - - - - - - - - 
- - - - - - - - - - - - - - - - - - - - - - - - - - - - - - - - - - - - - - - - - - - - - - - - - - - - - 
-10 -10--10 - --12 -12- 12- -- 10- 10- 10- --9 - -9 - -9 - - - - - - - - - - - - - 
-10 -10 -10 - --10 -10 -10 - --12- 12-12- --10 -10 -10 - - - - - - - - - - - - - 
- - - - - - - - - - - - - - - - - - - - - - - - - - - - - - - - - - - - - - - - - - - - - - - - - - - - - 

- - - - - - - - - - - - - - - - - - - - - - - - - - - - - - - - - - - - - - - - - - - - - - - - - - - - - - - - - - - -
- - - - - - - - - - - - - - - - - - - - - - - - - - - - - - - - - - - - - - - - - - - - - - - - - - - - - - - - - - -
- - - - - - - -9/10 - - - - - - - - - - - - - - - - - - - - - - - - - - - - - - - - - - - - - - - - - - - - - - - -
- - - - - - - -7/8 - - - - - - - - - - - - - - - - - - - - - - - - - -109- - - - - - -10 -9 - - - - - - - - - 
0- 0-0 -0 - - - - 0-0 -0 -0 - 0- 0-0 -0 - - -0 -0 -0 -0 -8 7 - -0-0 0- - - - - -10 -8 -7 - -  
- - - - - - - - - - - - - - - - - - - - - - - - - - - - - - - - - - - - - - - - - - - - - - - - - - - - - - - - - - - -

- - - - - - - - - - - - - - - - - - - - - - - - - - - - - - - - - - - - - - - - - - - - - - - - - - - - - 
- - - - - - - - - - - - - - - - - - - - - - - - - - - - - - - - - - - - - - - - - - - - - - - - - - - - - 
- - - - - - - - - - - - - - - - - - - - - - - - - - - - - - - - - - - - - - - - - - - - - - - - - - - - - 
-10 -10--10 - --12 -12- 12- -- 10- 10- 10- --9 - -9 - -9 - - - - - - - - - - - - - 
-10 -10 -10 - --10 -10 -10 - --12- 12-12- --10 -10 -10 - - - - - - - - - - - - - 
- - - - - - - - - - - - - - - - - - - - - - - - - - - - - - - - - - - - - - - - - - - - - - - - - - - - - 

- - - - - - - - - - - - - - - - - - - - - - - - - - - - - - - - - - - - - - - - - - - - - - - - - - - - - -
- - - - - - - - - - - - - - - - - - - - - - - - - - - - - - - - - - - - - - - - - - - - - - - - - - - - - -
- - - - - - - - - - - - - - - - - - - - - - - - - - - - - - - - - - - - - - - - - - - - - - - - - - - - - -
- - 7h8- - 8p7- - 7- - 7p5- -5h7 - - 7- - 7h8- -8p7 - - - - - - - - - - - - - - - - - -
-0 - - - -0 - - - -0 - -0 - - - -0 - - - -0 - - 0- - - -0 - - - -0 0- -0-0 0-0 - -0 0-0 0- 

- - - - - - - - - - - - - - - - - - - - - - - - - - - - - - - - - - - - - - - - - - - - - - - - - - - - - - - - - - - - - - - - - - - -  -
- - - - - - - - - - - - - - - - - - - - - - - - - - - - - - - - - - - - - - - - - - - - - - - - - - - - - - - - -- -  - - - - - - - - - -
- - - - - - - - - - - - - - - - - - - - - - - - - - - - - - - - - - - - - - - - - - - - - - - - - - - - - - - - - - - - - - - - -  - - - -
- - - - - - - - - - - - - - - - - - - - - - - - - - - - - - - - - - 9- 7- - - - - - - - - - - - - - - - 12- 10- - -  - - - - - - - -
- - 7h8- - 8p7- - 7- - 7p5- -5h7 - - 7- 10 -9 -7 - - - - 10 -9 -7 -13 -12 -10 - - - - - - 13- 12- 10- - 
0 - - - -0 - - - -0 - -0 - - - -0 - - - -0 - - - - - - - - - - - - - - - - - - - - - - - - - - - - - - - - - - - - - - - - - - - - - 

(continued on from above)
- - - - - - - - - - - - - - - - - - - - - - - - - - - - - - - - - - - 
- - - - - - - - - - - - - - - - - - - - - - - - - - - - - - - - - - - 
- - - - - - - - - - - - - - - - - - - - - - - - - - - - - - - - - - - 
- - - - - - - - 9-7- - - - - - - - - - - - 7-5 - - - - - - - - - 
- 10- 9- 7- - - - 10-9-7 -9 -7 -5 - - - -9- 7-5 - - - -
- - - - - - - - - - - - - - - - - - - - - - - - - - - - - - - - - - -

- - - - - - - - - - - - - - - - - - - - - - - - - - - - - - - - - - - - - - - - - - - - 
- - - - - - - - - - - - - - - - - - - - - - - - - - - - - - - - - - - - - - - - - - - - 
- - - - - - - - - - - - - - - - - - - - - - - - - - - - - - - - - - - - - - - - - - - - -
- - - - -  - - -4 - - - - - - - - - - - - - - - - - - - - - - - - - - - - - - - - - - - 
- 5 - - - - - -2- - - - - - - - - - - 7p5- - - - -7p5 - - -8~~ - - - - - - - 
- 3- - - - - - - - - - 0 -0 -0 -0 - - - - -0 -0 - - - - -0 - - - - - - - - - - - -

- - - - - - - - - - - - - - - - - - - - - - - - - - - - - - - - - - - - - - - - - - - - - - 
- - - - - - - - - - - - - - - - - - - - - - - - - - - - - - - - - - - - - - - - - - - - - - 
- - - - - - - - - - - - - - - - - - - - - - - - - - - - - - - - - - - - - - - - - - - - - - 
- 6 - - - 5 - - - - - - - - - - - - - - - - - - - - - - - - - - - - - - - - - - - - - - - 
- 4- - - -3 - - - - - - - - - - - - - - - - - - - - - - - - - - - - - - - - - - - - - - --
- - - - - - - - - 0- 0- 0- 0- 12- 10-0 -10-8-0-8 -7 -0 -7 -5 -3 - - - - -

- - - - - - - - - - - - - - - - - - - - - - - - - - - - - - - - - 
- - - - - - - - - - - -  8- 87- 75- -53 - - - - - - - - 
- - - - - - - - - 4/7- - - - - - - - - - - - - - - - - - - - - 
- - - - - -4- - - - - - - - - - - - - - - - - - - - - - - - - --
-5- - -- -2 - - - - - - - - - - - - - - - - - - - - - - - - - - 
-3 - - - - - - - - - - - - - - - - - - - - - - - - - - - - - - -

- - - - - - - - - - - - - - - - - - - - - - - - - - - - - - - - - - - - - - - - - - - - -
- - - - - - - - - - - - - - - - - - - - - - - - - - - - - - - - - - - - - - - - - - - -  
- - - - - - - - - - - - - - - - - - - - - - - - - - - - - - - - - - - - - - - - - - - - 
- 6- - - -5- - - - - - - - - -- - - - - - - - - -  -- - -  - - - - - - - - - - - - -
- 4- - - -3- - - - 2- -2- -2 -2 -3 3-3 5-5 5- - - - - - - - - - - - - - - - - - - - - - - - - 
- - - - - - - - - - -0 - - - - - - - - - - - - - - - - - - - - - - - - - - - - - - - - - 


- - - - - - - - - - - - - - - - - - - - - - - - - - - - - - - - - - - - - - - - - - - - - - - - - - - - - 
- - - - - - - - - - - - - - - - - - - - - - - - - - - - - - - - - - - - - - - - - - - - - - - - - - - - - 
- 5- - - - - -7 - - - - - -9 - - - - - - - - - - - - -5 - - - - -7 - - - - -9 - - - - - - - - - - - -
- 3-3 3-3 -5 -5 5-5 -7 7-7 7-7 7- 7-7 - -3 3-3 3-5 5-5 5-7 7-7 7-7 7-7 7- 
- - - - - - - - - - - - - - - - - - - - - - - - - - - - - - - - - - - - - - - - - - - - - - - - - - - - - 
- - - - - - - - - - - - - - - - - - - - - - - - - - - - - - - - - - - - - - - - - - - - - - - - - - - - - 
  .   .   .         .   .  .       .  .  .  .  .  .  .  .           . .  .        .  .  .       . .  .  . . . . . . . .  (mute the singled frets)

- - - - - - - - - - - - - - - - - - - - - - - - - - - - - - - - - - - - - - - - - - - - - - - - - - - - - 
- - - - - - - - - - - - - - - - - - - - - - - - - - - - - - - - - - - - - - - - - - - - - - - - - - - - - 
- 5- - - - - -7 - - - - - -9 - - - - - - - - - - - - -5 - - - - -7 - - - - -2 - - - - - - - - - - - -
- 3-3 3-3 -5 -5 5-5 -7 7-7 7-7 7- 7-7 - -3 3-3 3-5 5-5 5-0 0-0 0-0 0-0 0- 
- - - - - - - - - - - - - - - - - - - - - - - - - - - - - - - - - - - - - - - - - - - - - - - - - - - - - 
- - - - - - - - - - - - - - - - - - - - - - - - - - - - - - - - - - - - - - - - - - - - - - - - - - - - - 
  .   .   .         .   .  .       .  .  .  .  .  .  .  .           . .  .        .  .  .       . .  .  . . . . . . . .  (mute the singled frets)


- - - - - - - - - - - - - - - - - - - - - - - - - - - - - - - - - - - - - - - - - - - - - - - - - - - - - 
- - - - - - - - - - - - - - - - - - - - - - - - - - - - - - - - - - - - - - - - - - - - - - - - - - - - - 
- 5- - - - - -7 - - - - - -9 - - - - - - - - - - - - -5 - - - - -7 - - - - --2~~~~ - - - - - - - - - - -
- 3-3 3-3 -5 -5 5-5 -7 7-7 7-7 7- 7-7 - -3 3-3 3-5 5-5 5- 0~~~~ - - - - - - - - - - -- 
- - - - - - - - - - - - - - - - - - - - - - - - - - - - - - - - - - - - - - - - - - - - - - - - - - - - - 
- - - - - - - - - - - - - - - - - - - - - - - - - - - - - - - - - - - - - - - - - - - - - - - - - - - - - 

              --------------SOLO------------------

- - - - - - - - - - - - - - - - - - - - - - - - - - - - - - - - - - - - - - - - -22/24 - - - - -
-15~ -15 -15 - - - - - - - - - - - - - - - - - - - - - - 20-22 -24 - - - - - - - - - -
- - - - - - - - - - -12 - - - 14~- 14- 14- 12- 11- - - - - - - - - - - - - - - - - - - 
- - - - - - - - - - - - - -12 - - - - - - - - - - - - - - - - - - - - - - - - - - - - - - - - - - 
- - - - - - - - - - - - - - - - - - - - - - - - - - - - - - - - - - - - - - - - - - - - - - - - - - - 
- - - - - - - - - - - - - - - - - - - - - - - - - - - - - - - - - - - - - - - - - - - - - - - - - - -

- - - - - - - - - - - - - - - - - - - - - - - - - - - - - - - - 12- - -8 - - 14 - - - -10 - - - 
- - - - - 7- -8* - - - -- -8- -7*- - - - - - - - 7-5-7 - - --8- - - - - -- -10 - - - - - - 
- - - 5- - - - - - - - --5 - - - - - - 9 -7 -9 - - - - - - - - - - - - - - - - - - - - - - - - - - 
- 5- - - - - - - - - 5- - - - - - - - - - - - - - - - - - - - - - - - - - - - - - - - - - - - - - - - 
- - - - - - - - - - - - - - - - - - - - - - - - - - - - - - - - - - - - - - - - - - - - - - - - - - - - - 
- - - - - - - - - - - - - - - - - - - - - - - - - - - - - - - - - - - - - - - - - - - - - - - - - - - - - 

-14^ - - 15-14- - - - - - - - - - - - - - - - - - - - - - - - - - - - - - - - - - 24- - - - - - 
- - - - - - - - - - - -17 -17^^ - - -19 -17 -15 -20^ - - - - - - 15^- -24 - - - - - -
- - - - - - - - - - - - - - - - - - - - - - - - - - - - - - - - - - - - - - - - - - - - - - - - - - - - - 
- - - - - - - - - - - - - - - - - - - - - - - - - - - - - - - - - - - - - - - - - - - - - - - - - - - - - 
- - - - - - - - - - - - - - - - - - - - - - - - - - - - - - - - - - - - - - - - - - - - - - - - - - - - - 
- - - - - - - - - - - - - - - - - - - - - - - - - - - - - - - - - - - - - - - - - - - - - - - - - - - - - 

- 19-19-19-19- - 22-19 - - - - - - - - - - - - - - - - - - - - - - - - - - - - - - - - - - - 
- 20-20-20-20 - -24-20 - 22-22-22-22-20-19- - - - - - - - -15^^~~~~~ 
- - - - - - - - - - - - - - - - - - -23- 23-23 23-21-19- - - - - - - - - - - - - - - - - - - 
- - - - - - - - - - - - - - - - - - - - - - - - - - - - - - - - - - - - - - - - - - - - - - - - - - - - - 
- - - - - - - - - - - - - - - - - - - - - - - - - - - - - - - - - - - - - - - - - - - - - - - - - - - - - 
- - - - - - - - - - - - - - - - - - - - - - - - - - - - - - - - - - - - - - - - - - - - - - - - - - - - - 

- - - - - - - - - - - - - - - - - - - - - - - - - - - - - - - - - - - - - - - 
- - - - - - - - - - - - - - - - - - - - - - - - - - - - - - - - - - - - - - - 
-7 -5 -7 - -9 -7 -10 -9 -7 - - - - - - - - - - - - - - - - - - - - - 
- - - - - - 0- - - - - - - - - - - 10- 8- 7- - - 7- - - - - - - - - -- 
- - - - - - - - - - - - - - - - - - - - - - - - -10 - -8 -7 - - - - - - -
- - - - - - - - - - - - - - - - - - - - - - - - - - - - - - - - - - - - - - -

- - - - - - - - - - - - - - - - - - - - - - - - - - - - - - - - - - - - - - - 
- - - - - - - - - - - - - - - - - - - - - - - - - - - - - - - - - - - - - - - 
-7 -5 -7 - -9 -7 -10 -9 -7 - - - - - - - 12- - - - - - - - - - - - - 
- - - - - - 0- - - - - - - - - - - 10- 8- 7- 10- - - - - - - - - - - -- 
- - - - - - - - - - - - - - - - - - - - - - - - -- - - - - - - - - - - - - - -
- - - - - - - - - - - - - - - - - - - - - - - - - - - - - - - - - - - - - - -

- - - - - - - - - - - - - - - - - - - - - - - - - - - - - - - - - - - - - - - 
- - - - - - - - - - - - - - - - - - - - - - - - - - - - - - - - - - - - - - - 
-7 -5 -7 - -9 -7 -10 -9 -7 - - - - - - - - - - - - - - - - - - - - - 
- - - - - - 0- - - - - - - - - - - 10- 8- 7- - - 7- - - - - - - - - -- 
- - - - - - - - - - - - - - - - - - - - - - - - -10 - -8 -7 - - - - - - -
- - - - - - - - - - - - - - - - - - - - - - - - - - - - - - - - - - - - - - -

- - - - - - - - - - - - - - - - - - - - - - - - - - - - - - - - - - - - - - - 
- - - - - - - - - - - - - - - - - - - - - - - - - - - - - - - - - - - - - - - 
-7 -5 -7 - -9 -7 -10 -9 -7 - - - - - - - 12- - - - - - - - - - - - - 
- - - - - - 0- - - - - - - - - - - 10- 8- 7- 10- - - - - - - - - - - -- 
- - - - - - - - - - - - - - - - - - - - - - - - -- - - - - - - - - - - - - - -
- - - - - - - - - - - - - - - - - - - - - - - - - - - - - - - - - - - - - - -

- - - - - - - - - - - - - - - - - - - - - - - - - - - - - - - - - - - - - - - 
- - - - - - - - - - - - - - - - - - - - - - - - - - - - - - - - - - - - - - - 
-7 -5 -7 - -9 -7 -10 -9 -7 - - - - - - - - - - - - - - - - - - - - - 
- - - - - - 0- - - - - - - - - - - 10- 8- 7- - - 7- - - - - - - - - -- 
- - - - - - - - - - - - - - - - - - - - - - - - -10 - -8 -7 - - - - - - -
- - - - - - - - - - - - - - - - - - - - - - - - - - - - - - - - - - - - - - -

- - - - - - - - - - - - - - - - - - - - - - - - - - - - - - - - - - - - - - - 
- - - - - - - - - - - - - - - - - - - - - - - - - - - - - - - - - - - - - - - 
-7 -5 -7 - -9 -7 -10 -9 -7 - - - - - - - 12- - - - - - - - - - - - - 
- - - - - - 0- - - - - - - - - - - 10- 8- 7- 10- - - - - - - - - - - -- 
- - - - - - - - - - - - - - - - - - - - - - - - -- - - - - - - - - - - - - - -
- - - - - - - - - - - - - - - - - - - - - - - - - - - - - - - - - - - - - - -

- - - - - - - - - - - - - - - - - - - - - - - - - - - - - - - - - - - - - - - 
- - - - - - - - - - - - - - - - - - - - - - - - - - - - - - - - - - - - - - - 
-7 -5 -7 - -9 -7 -10 -9 -7 - - - - - - - - - - - - - - - - - - - - - 
- - - - - - 0- - - - - - - - - - - 10- 8- 7- - - 7- - - - - - - - - -- 
- - - - - - - - - - - - - - - - - - - - - - - - -10 - -8 -7 - - - - - - -
- - - - - - - - - - - - - - - - - - - - - - - - - - - - - - - - - - - - - - -

- - - - - - - - - - - - - - - - - - - - - - - - - - - - - - - - - - - - - - - 
- - - - - - - - - - - - - - - - - - - - - - - - - - - - - - - - - - - - - - - 
-7 -5 -7 - -9 -7 -10 -9 -7 - - - - - - - 12- - - - - - - - - - - - - 
- - - - - - 0- - - - - - - - - - - 10- 8- 7- 10- - - - - - - - - - - -- 
- - - - - - - - - - - - - - - - - - - - - - - - -- - - - - - - - - - - - - - -
- - - - - - - - - - - - - - - - - - - - - - - - - - - - - - - - - - - - - - -

- - - - - - - - - - - - - - - - - - - - - - - - - - - - - - - - - - - - - - - - -
-8 -6 -8 - 10-8-11-10-8 - - - - - - - - - - - - - - - - - - - - - - - 
- - - - - - 0- - - - - - - - - - - 10-8-7 - - -7- - - - - - - - - - - - - -
- - - - - - - - - - - - - - - - - - - - - - - -10 -- 8-7 - - - - - - - - - - 
- - - - - - - - - - - - - - - - - - - - - - - - - - - - - - - - - - - - - - - - - 
- - - - - - - - - - - - - - - - - - - - - - - - - - - - - - - - - - - - - - - - - 

- - - - - - - - - - - - - - - - - - - - - - - - - - - - - - - - - - - - - - - - -
-8 -6 -8 - 10-8-11-10-8 - - - - - - - 13- - - - - - - - - - - - - - -
- - - - - - 0- - - - - - - - - - - 10-8-7 - 10- - - - - - - - - - - - - - -
- - - - - - - - - - - - - - - - - - - - - - - - --  - - - - - - - - - - - - - - -
- - - - - - - - - - - - - - - - - - - - - - - - - - - - - - - - - - - - - - - - - 
- - - - - - - - - - - - - - - - - - - - - - - - - - - - - - - - - - - - - - - - - 

- - - - - - - - - - - - - - - - - - - - - - - - - - - - - - - - - - - - - - - - -
-8 -6 -8 - 10-8-11-10-8 - - - - - - - - - - - - - - - - - - - - - - - 
- - - - - - 0- - - - - - - - - - - 10-8-7 - - -7- - - - - - - - - - - - - -
- - - - - - - - - - - - - - - - - - - - - - - -10 -- 8-7 - - - - - - - - - - 
- - - - - - - - - - - - - - - - - - - - - - - - - - - - - - - - - - - - - - - - - 
- - - - - - - - - - - - - - - - - - - - - - - - - - - - - - - - - - - - - - - - - 

- - - - - - - - - - - - - - - - - - - - - - - - - - - - - - - - - - - - - - - - -
-8 -6 -8 - 10-8-11-10-8 - - - - - - - 13- - - - - - - - - - - - - - 
- - - - - - 0- - - - - - - - - - - 10-8-7 - 10- - - - - - - - - - - - - - 
- - - - - - - - - - - - - - - - - - - - - - - - --  - - - - - - - - - - - - - - -
- - - - - - - - - - - - - - - - - - - - - - - - - - - - - - - - - - - - - - - - - 
- - - - - - - - - - - - - - - - - - - - - - - - - - - - - - - - - - - - - - - - - 

- - - - - - - - - - - - - - - - - - - - - - - - - - 13- - -15 - - - - - - - - - - - - - - - - - - - - - - - -  - - - - - - - - - -- - - - -
-13-14-15-14-13-14-15-14-13-14 - - 14- - -14-13- - -13 - - -11 13- - - - - - - - - - - - -12 - - - - - - - -
- - - - - - - - - - - - - - - - - - - - - - - - - - - - - - - - - - - - - -15 - - -12 - - - - -12-10 - - - - - - - - - - 12-10 - - - 
- - - - - - - - - - - - - - - - - - - - - - - - - - - - - - - - - - - - - - - - - - - - - - - - - - - - - - -12-11-11 - - - - - - - 11- 
- - - - - - - - - - - - - - - - - - - - - - - - - - - - - - - - - - - - - - - - - - - - - - - - - - - - - - - - - - - - - - - - - - - - - - - - -
- - - - - - - - - - - - - - - - - - - - - - - - - - - - - - - - - - - - - - - - - - - - - - - - - - - - - - - - - - - - - - - - - - - - - - - - - 

---------------------RHYTHM TO KEYBOARD SOLO----------------------------

- - - - - - - - - - - - - - - - - - - - - - - - - - - - - - - - - - - - - - - - - - - - - - - - 
- - - - - - - - - - - - - - - - - - - - - - - - - - - - - - - - - - - - - - - - - - - - - --  - -
- - - - - - - - - - - - - - - - - - - - - - - - - - - - - - - - - - - - - - - - - - - - - - - - -
- - - - - - - - - - - - - - ---4~ --4 - - - - - - - - - - - - - - - - - - - - - - - - - - - - 
- - - - - 6~- -6 - 2-2 2-2~ --2 - - - - - -- -2~- 2- - - - - - 4~ - 4- - - - - - 
-4 4-4 4~- -4 - - - - - - - - - - - - --0-0-0-0~- 0- -2-2-2-2~ -2 - - - - - -
 .   .   .              .  .  .               .  .   .              .  .  .   
- - - - - - - - - - - - - - - - - - - - - - - - - - - - - - - - - - - - - - - - - - - - - - - - - - - - - 
- - - - - - - - - - - - - - - - - - - - - - - - - - - - - - - - - - - - - - - - - - - - - - - - - - - - - 
- - - - - - - - - - - - - - - - - - - - - - - - - - - - - - - - - - - - - - - - - - - - - - - - - - - - - 
- - - - - - - - - - - - - - -  - 4~- 4- - - - --9- 8- -6 - - - - - - - - - - - - - - - - - - - - - -  
- - - - - -6~-  6- -2-2-2-2~ -2 - - - - -7 -6 - 4- -4 - - - - - - - - - - - - - - - - - - - - 
-4-4-4-4~ - 4- - - - - - - - - - - - - - - - - - - - -- -- 2 - - - - - - - - - - - - - - - - - - - - 
  .  .   .               .  .   .


- - - - - - - - - - - - - - - - - - - - - - - - - - - - - - - - - - - - - - - - - - - - - - - 
- - - - - - - - - - - - - - - - - - - - - - - - - - - - - - - - - - - - - - - - - - - - - - - 
- - - - - - - - - - - - - - - - ---7~ - -7 - - - - - - - - - - - - - - - - - - - - - - - - 
- - - - - - -9~ -9 - 5- 5- 5-5~- -5 - - - - - - - - - - - - - - - - - - - - - - - - 
- 7-7 -7 -7~ -7- - - - - - - - - - - - - - - - - - - - - - - - - - - - - - - - - - - - 
- - - - - - - - - - - - - - - - - - - - - - - - - - - - - - - - - - - - - - - - - - - - - - - 
  .   .   .

Alexi taps on this part..
- - - - - - - - - - - - - - - - - - - - - - - - - - - - - - - - - - - - - - - 
- - - - - - - - - - - - - - - - - - - - - - - - - - - - - - - - - - - - - - -
-16p12h16p12p9 -16p12h16p12p9 - 19p16h19p16h19p16p12- -19p16h19p16h19p16p12 - 
- - - - - - - - - - - - - - - - - - - - - - - - - - - - - - - - - - - - - - - 
- - - - - - - - - - - - - - - - - - - - - - - - - - - - - - - - - - - - - - -
- - - - - - - - - - - - - - - - - - - - - - - - - - - - - - - - - - - - - - -

- - - - - - - - - - - - - - - - - - - - - - - - - - - - - - - - - - - - - - - - - - - - - - - 
- - - - - - - - - - - - - - - - - - - - - - - - - - - - - - - - - - - - - - - - - - - - - - - 
-21p17h21p17h21p17p14- -21p17h21p17h21p17p14 - - - 
- - - - - - - - - - - - - - - - - - - - - - - - - - - - - - - - - - - - - - - - - - - - - - - 
- - - - - - - - - - - - - - - - - - - - - - - - - - - - - - - - - - - - - - - - - - - - - - - 
- - - - - - - - - - - - - - - - - - - - - - - - - - - - - - - - - - - - - - - - - - - - - - - 

- - - - - - - - - - - - - - - - - - - - - - - - - - - - - - - - - - - - - - - - - - - - - - - 
- - - - - - - - - - - - - - - - - - - - - - - - - - - - - - - - - - - - - - - - - - - - - - - 
-23p19h23p19h23p19p16 - -23p19h23p19h23p19p16 - - - 
- - - - - - - - - - - - - - - - - - - - - - - - - - - - - - - - - - - - - - - - - - - - - - - 
- - - - - - - - - - - - - - - - - - - - - - - - - - - - - - - - - - - - - - - - - - - - - - - 
- - - - - - - - - - - - - - - - - - - - - - - - - - - - - - - - - - - - - - - - - - - - - - - 

- - - - - - - - - - - - - - - - - - - - - - - - - - - - - - - - - - - - - - - - - - - - - - - 
-20p17h20p17h20p17p12 - -20p17h20p17h20p17p12 - - - 
- - - - - - - - - - - - - - - - - - - - - - - - - - - - - - - - - - - - - - - - - - - - - - - 
- - - - - - - - - - - - - - - - - - - - - - - - - - - - - - - - - - - - - - - - - - - - - - - 
- - - - - - - - - - - - - - - - - - - - - - - - - - - - - - - - - - - - - - - - - - - - - - - 
- - - - - - - - - - - - - - - - - - - - - - - - - - - - - - - - - - - - - - - - - - - - - - -


-19p15h19p15h19p15p12 - -19p15h19p15h19p15p12 - - 
- - - - - - - - - - - - - - - - - - - - - - - - - - - - - - - - - - - - - - - - - - - - - - - 
- - - - - - - - - - - - - - - - - - - - - - - - - - - - - - - - - - - - - - - - - - - - - - - 
- - - - - - - - - - - - - - - - - - - - - - - - - - - - - - - - - - - - - - - - - - - - - - - 
- - - - - - - - - - - - - - - - - - - - - - - - - - - - - - - - - - - - - - - - - - - - - - - 
- - - - - - - - - - - - - - - - - - - - - - - - - - - - - - - - - - - - - - - - - - - - - - -

/19 -14 -15 -17 -19 -20-19 - -19 -20 -19 -17 -15 -14 - - - - - - - 
- - - - - - - - - - - - - - - - - - - - - - - - - - - - - - - - - - - - - - - - - - - - - - - 
- - - - - - - - - - - - - - - - - - - - - - - - - - - - - - - - - - - - - - - - - - - - - - - 
- - - - - - - - - - - - - - - - - - - - - - - - - - - - - - - - - - - - - - - - - - - - - - - 
- - - - - - - - - - - - - - - - - - - - - - - - - - - - - - - - - - - - - - - - - - - - - - - 
- - - - - - - - - - - - - - - - - - - - - - - - - - - - - - - - - - - - - - - - - - - - - - -

Then play the intro riffs again..figure it out, im done


Children of Bodom albums
2005 Trashed, Lost & Strung Out (EP)
2003 Hate Crew Deathroll
2001 Tokyo Warhearts (Live)
2001 Follow the Reaper
1999 Hatebreeder
1998 Something Wild
Hate Crew Deathroll tabs
01Needled 24/7 tabbass tab
02Sixpounder tabbass tab
03Chokehold (Cocked 'n' Loaded) tabbass tab
04Bodom Beach Terror tabbass tab
05Angels Don't Kill tabbass tab
06Triple Corpse Hammerblow tabbass tab
07You're Better Off Dead tabbass tab
08Lil' Bloodred Ridin' Hood tabbass tab
09Hate Crew Deathroll tabbass tab
10Silent Scream tabbass tab
11Somebody Put Something in My Drink tabbass tab

 

1