Search tabs:
Browse artists: 0-9 | A | B | C | D | E | F | G | H | I | J | K | L | M | N | O | P | Q | R | S | T | U | V | W | X | Y | Z
/ Children of Bodom / Hate Crew Deathroll (2003) / Lil' Bloodred Ridin' Hood guitar tab

Children of Bodom
Lil Bloodred Ridin Hood

Tuning: DGCFAD

Copy and put into Word
-----------------------------------
-----------------------------------
----9---9---9----10----7---7-------
----9---9---9----10----7---7-------
----7---7---7-----8-----5---5------
-----------------------------------

-----------------------------------
-----------------------------------
----9---9---9---12---7---7---------
----9---9---9---12---7---7---------
----7---7---7---10---5---5---------
-----------------------------------

-----------------------------------
-----------------------------------
---9---9---9----10----7---7--------
---9---9---9----10----7---7--------
---7---7---7-----8-----5---5-------
-----------------------------------

-----------------------------------
-----------------------------------
-----------------------------------
---9---9--9---9--9---9--9----------
---7---7--7---7--7---7--7----------
-----------------------------------

-----------------------------------
-----------------------------------
---9---9---9----10---7---7---------
---9---9---9----10---7---7---------
---7---7---7-----8----5---5--------
-----------------------------------

-----------------------------------
-----------------------------------
---9---9---9----12----7---7--------
---9---9---9----12----7---7--------
---7---7---7----10----5---5--------
-----------------------------------

-----------------------------------
-----------------------------------
---9---9---9---10---7---7----------
---9---9---9---10---7---7----------
---7---7---7----8----5---5---------
-----------------------------------

-----------------------------------
-----------------------------------
----9----4----5----7---------------
----9----4----5----7---------------
----7----2----3----5---------------
-----------------------------------

-------------------------------------------------------------
-----------------------------------------------7--------7----
-----------------------------------------------7--------7----
-----------------------------------------------5--------5----
-------7-----7-----7----7----7----7--------------------------
---0------0-----0----0----0----0-----0--------0--------------

-------------------------------------------------------------
-------------------------------------------------------------
-------------------------------------------------------------
-------------------------------------------------------------
------7------7------7-----7-----10-----12-----15-----14------
--0------0------0------0-----0------0-------0-------0--------

-------------------------------------------------------------
---------------------------------------------------7-----7---
---------------------------------------------------7-----7---
---------------------------------------------------5-----5---
------7------7------7-----7------7------7--------------------
--0------0------0------0-----0------0------0-----0-----------

-------------------------------------------------------------
-------------------------------------------------------------
---------------------------------------4--7--5--4------------
-----------------------------------5-----------------7--5--4-
------7------7------7-----7----------------------------------
--0------0------0------0-------------------------------------

-------------------------------------------------------------
-------------------------------------------------------------
-------------------------------------------------------------
-------------------------------------------------------------
-----7-----7------7-----7-----7-----7------5------5----------
--0-----0-----0------0-----0-----0-----0------0--------------

-------------------------------------------------------------
-------------------------------------------------------------
-------------------------------------------------------------
-------------------------------------------------------------
------7------7------7-----7-----10-----12-----15-----14------
--0------0------0------0-----0------0-------0-------0--------

-------------------------------------------------------------------------------
-------------------------------------------------------------------------------
-------------------------------------------------------------------------------
-------------------------------------------------------------------------------
------7------7------7-----7-----7-----7------5------5-----7-----7-----7-----7--
--0------0------0------0-----0-----0-----0------0------0-----0-----0-----0-----

----------------------------------------------------------------------------------
----------------------------------------------------------------------------------
----------------------------------------------------------------------------------
-----------------------------------------------------------------------------5----
--5--------------------------6----------------------8----------------------3----4-
--3--3--3--3--3--3--3---4--4--4--4--4--4---6--6--6--6--6--6---------2-------------

---------------------------------------------
---------------------------------------------
------------------------7----4------7---5----
------------------------5----2------7---5----
--2---2----------2-----------------5---3-----
--0---0----------0---------------------------

------------------------------
------------------------------
-------------------7---4------
-------------------5---2------
--2--2--2--2------------------
--0--0--0--0------------------

----------------------------------
----------------------------------
----------------------------------
---8--9-------------7--8----------
------------9--10---------10--7---
----------------------------------

------------------------------------------------
------------------------------------------------
--------------------7---4------------7-------5--
--------------------5---2------------7-------5--
--2---2------2----------------------5-------3---
--0---0------0----------------------------------

-------------------------------------
-------------------------------------
-------------------7----4------------
-------------------5----2------------
--2--2--2--2-------------------------
--0--0--0--0-------------------------

-------------------------------------
-------------------------------------
-------------------------------------
--8--9-----------7--8----------------
---------9--10----------10--7--------
-------------------------------------

-------------------------------------
-------------------7---5------9--7---
-------------------7---5------9--7---
-------------------5---3------7--5---
--4--4-----4-------------------------
--2--2-----2-------------------------

-------------------------------------
------------------7---5-------9--7---
------------------7---5-------9--7---
------------------5---3-------7--5---
--4--4----4--------------------------
--2--2----2--------------------------

---------------------------------------
--------------------7---5-------9--7---
--------------------7---5-------9--7---
--------------------5---3-------7--5---
--4--4------4--------------------------
--2--2------2--------------------------

---------------------------------------
-------------------7---5-----6--6------
-------------------7---5-----6--6------
-------------------5---3-----4--4------
--4--4------4--------------------------
--2--2------2--------------------------

-------------------------------------------------------
--------------------7---5-------9--7--------------------------
--------------------7---5-------9--7--------------------------
--------------------5---3-------7--5--------------------------
--4--4------4-----------------------------------------------
--2--2------2-----------------------------------------------

-------------------------------------------------------
--------------------7---5-------9--7--------------------------
--------------------7---5-------9--7--------------------------
--------------------5---3-------7--5--------------------------
--4--4------4-----------------------------------------------
--2--2------2-----------------------------------------------

-------------------------------------------------------
--------------------7---5-------9--7--------------------------
--------------------7---5-------9--7--------------------------
--------------------5---3-------7--5--------------------------
--4--4------4-----------------------------------------------
--2--2------2-----------------------------------------------

---------------------------------------------
-------------------7---5-----6--6----------------
-------------------7---5-----6--6----------------
-------------------5---3-----4--4----------------
--4--4------4--------------------------------------
--2--2------2--------------------------------------

-------------------------------------------
-------------------------------------------
-------------------------------------------
--4---4---4---5---2--2---------------------------
--4---4---4---5---2--2---------------------------
--2---2---2---3---0--0---------------------------

-------------------------------------------
-------------------------------------------
-------------------------------------------
---4---4---4---7---2---2-------------------------
---4---4---4---7---2---2-------------------------
---2---2---2---5---0---0-------------------------

-------------------------------------------
-------------------------------------------
-------------------------------------------
--4---4---4---5---2--2---------------------------
--4---4---4---5---2--2---------------------------
--2---2---2---3---0--0---------------------------

-----------------------------------------
-----------------------------------------
-----------------------------------------
--4---------------------------------------
--4--4--4--4--4--4--4---------------------------
--2--2--2--2--2--2--2---------------------------

-------------------------------------------
-------------------------------------------
-------------------------------------------
--4---4---4---5---2--2---------------------------
--4---4---4---5---2--2---------------------------
--2---2---2---3---0--0---------------------------

-------------------------------------------
-------------------------------------------
-------------------------------------------
---4---4---4---7---2---2-------------------------
---4---4---4---7---2---2-------------------------
---2---2---2---5---0---0-------------------------

-------------------------------------------
-------------------------------------------
-------------------------------------------
--4---4---4---5---2--2---------------------------
--4---4---4---5---2--2---------------------------
--2---2---2---3---0--0---------------------------

-------------------------------------------
-------------------------------------------
----------6---7---9---------------------------
---4-----6---7---9-----------------------------
---4-----4---5---7-----------------------------
---2----------------------------------------

-------------------------------------------
-------------------------------------------
-------------------------------------------
-------------------------------------------
--4---4---4---5---5---5---2---2--------------------
--2---2---2---3---3---3---0---0--------------------

-------------------------------------------
-------------------------------------------
-------------------------------------------
-------------------------------------------
--4---4---4---7---7---7---2---2-----------------
--2---2---2---5---5---5---0---0----------------

-------------------------------------------
-------------------------------------------
-------------------------------------------
-------------------------------------------
--4---4---4---5---5---5---2---2--------------------
--2---2---2---3---3---3---0---0--------------------

-----------------------------------------
-----------------------------------------
-----------------------------------------
-----------------------------------------
---4--4---4------3------2---------------------
---2--2-------0------0-------0----------------

-----------------------------------------
-----------------------------------------
-----------------------------------------
-----------------------------------------
--4---4---4---5---5---5---2---2------------------
--2---2---2---3---3---3---0---0------------------

-----------------------------------------
-----------------------------------------
-----------------------------------------
-----------------------------------------
--4---4---4---7---7---7---2---2-----------------
--2---2---2---5---5---5---0---0------------------

-----------------------------------------
-----------------------------------------
-----------------------------------------
-----------------------------------------
--4---4---4---5---5---5---2---2------------------
--2---2---2---3---3---3---0---0------------------

-----------------------------------------
-----------------------------------------
-------------6---7---9----------------------
-------------6---7---9----------------------
---4---4----4---5---7-------------------------
---2---2-----------------------------------

------------------------------------------------------------------
---------------------------------------------------7-----7---------
---------------------------------------------------7-----7---------
---------------------------------------------------5-----5---------
------7------7------7-----7------7------7--------------------
--0------0------0------0-----0------0------0-----0-------------

-------------------------------------------------------------------
---------------------------------------------------------------------
------------------------------------------------------------------------
-------------------------------------------------------------------------
------7------7------7-----7-----10-----12-----15-----14------------
--0------0------0------0-----0------0-------0-------0-----------------

------------------------------------------------------------------
---------------------------------------------------7-----7---------
---------------------------------------------------7-----7---------
---------------------------------------------------5-----5---------
------7------7------7-----7------7------7--------------------
--0------0------0------0-----0------0------0-----0-------------

------------------------------------------------------------------
------------------------------------------------------------------
---------------------------------------4--7--5--4-----------------
-----------------------------------5-----------------7--5--4------
------7------7------7-----7---------------------------------------
--0------0------0------0------------------------------------------

------------------------------------------------------------------
------------------------------------------------------------------
------------------------------------------------------------------
------------------------------------------------------------------
------7------7------7-----7-----7-----7------5------5-------------
--0------0------0------0-----0-----0-----0------0-----------------

------------------------------------------------------------------
------------------------------------------------------------------
------------------------------------------------------------------
------------------------------------------------------------------
------7------7------7-----7-----10-----12-----15-----14-----------
--0------0------0------0-----0------0-------0-------0-------------

------------------------------------------------------------------------------------
------------------------------------------------------------------------------------
------------------------------------------------------------------------------------
------------------------------------------------------------------------------------
------7------7------7-----7-----7-----7------5------5------7------7------7------7---
--0------0------0------0-----0-----0-----0------0------0------0------0------0-------


------------------------------------------------------------------------------------
------------------------------------------------------------------------------------
------------------------------------------------------------------------------------
-----------------------------------------------------------------------------5------
--5--------------------------6----------------------8----------------------3----4---
--3--3--3--3--3--3--3---4--4--4--4--4--4---6--6--6--6--6--6---------2---------------

------------------------------------------------------------
------------------------------------------------------------
---8--------------------8---10----11----11---13-----15------
---8--------------------8---10----11----11---13-----15------
---6--------------------6----8------9------9----11-----13---
------------------------------------------------------------

-----------------------------------------------------------------------------
-----------------------------------------------------------------------------
-----------------------------------------------------------------------------
--6-----------------------------------------------6--------------------------
--4--4--4--4--4--4--4--4--4--4--4--4-----4--4--4--4--4--4--4--4--4--4--4--4--
-----------------------------------------------------------------------------

------------------------------------------------------------------------------
------------------------------------------------------------------------------
------------------------------------------------------------------------------
---6------------------------8----------------------9--------------------------
---4--4--4--4--4--4-----6--6--6--6--6--6---7--7--7--7--7--7--7--7--7--7--7--7-
------------------------------------------------------------------------------

------------------------------------------------------------------------------------------------------------
--------------------------------------------------------------------------------------------------------21--
------------------------------------------------------------------------------------------------------------
--9----------------------------------------------9--------------------11-----------------------13-----------
--7--7--7--7--7--7--7--7--7--7--7--7----7--7--7--7--7--7---9--9--9--9--9--9----11--11--11--11--11--11-------
------------------------------------------------------------------------------------------------------------

------------------------------------------------------------------------------------------------------------
------------------------------------------------------------------------------------------------------------
------------------------------------------------------------------------------------------------------------
--9----------------------9----------------------9----------------------9---5---12------------------12----7--
--7--7--7--7--7--7---7--7--7--7--7--7---7--7--7--7--7--7---7---7---10--10--10--10--10--10--10--5------------
------------------------------------------------------------------------------------------------------------

------------------------------------------------------------------
-----------------------------------------------------------------------
-------------------------------------------------------------------------
--12------------------------------12--11---------------------------
--10--10--10--10--10--10--10---9----------------------------------
-------------------------------------------------------------------------------

--------------------------------------------------------------------------
---------------------------------------------------------------------------
---------------------------------------------------------------------------
--9---------------------9---------------------9----------------------9--7----
--7--7--7--7--7--7--7--7--7--7--7--7--7--7--7--7--7--7---7--5----------
-----------------------------------------------------------------------------------

-------------------------------------------------------------------------------------------------
-------------------------------------------------------------------------------------------------
----------------------------------------------------------------------------------------------------
--12---------------------------------7-----12-------------------------------12-----11------
--10--10--10--10--10--10-----5-----10--10--10--10--10--10---10------9--------------
--------------------------------------------------------------------------------------------------

-------------------------------------------------------------------------------------
------------------------------------------------------------------------------------
----------------------------------------------------------------------------------------
-11-------------------11-------------------11-------------------11-----9------
--9--9--9--9--9--9--9--9--9--9--9--9--9--9--9--9--9--9--9-----7-----------
----------------------------------------------------------------------------------------

-------------------------------------------------------------------------------------------------
------------------------------------------------------------------------------------------------------
---------------------------------------------------------------------------------------------------
--14------------------------------14----9----14------------------------------14-----13--------
--12--12--12--12--12--12--12----7----12--12--12--12--12--12--12-----11-------------
---------------------------------------------------------------------------------------------------------

------------------------------------------------------------------------------------------
------------------------------------------------------------------------------------------
---------------------------------------------------------------------------------------------
-11-------------------11-------------------11-------------------11------9----------------
--9--9--9--9--9--9--9--9--9--9--9--9--9--9--9--9--9--9--9------7---------------------
----------------------------------------------------------------------------------------------


Children of Bodom albums
2005 Trashed, Lost & Strung Out (EP)
2003 Hate Crew Deathroll
2001 Tokyo Warhearts (Live)
2001 Follow the Reaper
1999 Hatebreeder
1998 Something Wild
Hate Crew Deathroll tabs
01Needled 24/7 tabbass tab
02Sixpounder tabbass tab
03Chokehold (Cocked 'n' Loaded) tabbass tab
04Bodom Beach Terror tabbass tab
05Angels Don't Kill tabbass tab
06Triple Corpse Hammerblow tabbass tab
07You're Better Off Dead tabbass tab
08Lil' Bloodred Ridin' Hood tabbass tab
09Hate Crew Deathroll tabbass tab
10Silent Scream tabbass tab
11Somebody Put Something in My Drink tabbass tab

 

1