Search tabs:
Browse artists: 0-9 | A | B | C | D | E | F | G | H | I | J | K | L | M | N | O | P | Q | R | S | T | U | V | W | X | Y | Z
/ Children of Bodom / Hatebreeder (1999) / Wrath Within guitar tab

WRATH WITHIN
from: CHILDREN OF BODOM
      HATEBREEDER

Guitar 1
[look for guitar fills and solos at line 657]
Tab by Siroa : death_50@hotmail.com



                                                                     
D||--------------------------------|--------------------------------|
A||--------------------------------|--------------------------------|
F||--------------------------------|--------------------------------|
C||--------------------------------|--------------------------------|
G||--------------------------------|--------------------------------|
D||--5--5-5-5-5-5-5-5--5-5-5-5-5-5-|--5--5-5-5-5-5-5-5--5-5-5-5-5-5-|


                                                                  
--------------------------------|--------------------------------|
--------------------------------|--------------------------------|
--------------------------------|--------------------------------|
--------------------------------|--------------------------------|
--------------------------------|--------------------------------|
--5--5-5-5-5-5-5-5--5-5-5-5-5-5-|--5--5-5-5-5-5-5-5--5-5-5-5-5-5-|


                                                                  
--------------------------------|--------------------------------|
--------------------------------|--------------------------------|
--------------------------------|--------------------------------|
--------------------------------|--------------------------------|
--------------------------------|--------------------------------|
--5--5-5-5-5-5-5-5--5-5-5-5-5-5-|--5--5-5-5-5-5-5-5--5-5-5-5-5-5-|


                                                                  
--------------------------------|--------------------------------|
--------------------------------|--------------------------------|
--------------------------------|--------------------------------|
--------------------------------|--------------------------------|
--------------------------------|--4--4-4-4-4-4-4-4--4-4-4-4-4-4-|
--5--5-5-5-5-5-5-5--5-5-5-5-5-5-|--------------------------------|


                                                                  
--------------------------------|--------------------------------|
--------------------------------|--------------------------------|
--------------------------------|--------------------------------|
--------------------------------|--------------------------------|
--------------------------------|--------------------------------|
--5--5-5-5-5-5-5-5--5-5-5-5-5-5-|--2--2-2-2-2-2-2-2--2-2-2-2-2-2-|


                                                                              
--------------------------|------------------|-------------------------------|
--------------------------|------------------|-------------------------------|
-----5--7--9--7--5--4-----|------------------|----------------------------5--|
-----------------------6~-|------------------|-------------------------------|
--0-----------------------|------------------|-------------------------------|
--------------------------|------------------|--5--5-5-5-5-5-5-5--5-5-5-5----|


                                                                      
------------------|-------------------------------|------------------|
------------------|-------------------------------|------------------|
------------------|----------------------------9--|------------------|
------------------|-------------------------------|------------------|
------------------|-------------------------------|------------------|
------------------|--5--5-5-5-5-5-5-5--5-5-5-5----|------------------|


                                                                              
-------------------------------|------------------|--------------------------|
-------------------------------|------------------|--------------------------|
----------------------------8--|------------------|-----5--7--9--7--5--4-----|
-------------------------------|------------------|-----------------------6~-|
-------------------------------|------------------|--0-----------------------|
--5--5-5-5-5-5-5-5--5-5-5-5----|------------------|--------------------------|


                                                                          
------------------|-------------------------|----------------------------|
------------------|-------------------------|----------------------------|
------------------|-------------------------|----------------------------|
------------------|--7----7--------------7--|----------------------------|
------------------|--7----7--------------7--|----------------------------|
------------------|--5----5--5--5--5--5--5--|------5--5-5-5--5-5-5-5-5-5-|


                                                         
-------------------------|------------------------------|
-------------------------|------------------------------|
----------------------6--|------------------------------|
--7----7--------------6--|------------------------------|
--7----7--------------4--|------4-4-4-4-4-4-4-4-4-4-4-4-|
--5----5--5--5--5--5-----|------------------------------|


                                                       
-------------------------|----------------------------|
-------------------------|----------------------------|
-------------------------|----------------------------|
--7----7--------------4--|----------------------------|
--7----7--------------4--|----------------------------|
--5----5--5--5--5--5--2--|------2--2-2-2--2-2-2-2-2-2-|


                                                                           
--------------------------|--------------10--15--10----------|------------|
--------------------------|----------11--------------11------|------------|
-----5--7--9--7--5--4--5--|------12----------------------12--|------------|
--------------------------|--12------------------------------|--7--7------|
--0-----------------------|----------------------------------|--7--7------|
--------------------------|----------------------------------|--5--5------|


                                                                      
----------------------------------|----------------------------------|
----------------------------------|----------------------------------|
----------------------------------|----------------------------------|
----------------------------------|----------------------------------|
--7-7-7-7-7-7-7-7-7-7-7-7-7-7-7-7-|--7-7-7-7-7-7-7-7-7-7-7-7-7-7-7-7-|
----------------------------------|----------------------------------|


                                                                  
----------------------------------|------------------------------|
----------------------------------|------------------------------|
----------------------------------|------------------10--7--9----|
----------------------------------|------------------10--7--9----|
--7-7-7-7-7-7-7-7-7-7-7-7-7-7-7-7-|--7-7-7-7-7-7-7-7-8---5--7----|
----------------------------------|------------------------------|


                                                                     
---------------------------------|----------------------------------|
---------------------------------|----------------------------------|
--9------------------------------|----------------------------------|
--9------------------------------|----------------------------------|
--7--7-7-7-7-7-7-7-7-7-7-7-7-7-7-|--7-7-7-7-7-7-7-7-7-7-7-7-7-7-7-7-|
---------------------------------|----------------------------------|


                                                           
----------------------------------|-----------------------|
----------------------------------|-----------------------|
----------------------------------|-----------8--9--------|
----------------------------------|--10----9--------------|
--7-7-7-7-7-7-7-7-7-7-7-7-7-7-7-7-|-----------------------|
----------------------------------|-----------------------|


                                                                      
----------------------------------|----------------------------------|
----------------------------------|----------------------------------|
----------------------------------|----------------------------------|
----------------------------------|----------------------------------|
--7-7-7-7-7-7-7-7-7-7-7-7-7-7-7-7-|--7-7-7-7-7-7-7-7-7-7-7-7-7-7-7-7-|
----------------------------------|----------------------------------|


                                                                        
----------------------------------|------------------------------------|
----------------------------------|------------------------------------|
----------------------------------|--------------------------------7-7-|
--7-7-7-7-7-7-7-7-7-7-7-7-7-7-7-7-|--7-7-7-7-7-7-7-7-7-7-9-9-10-10-----|
----------------------------------|------------------------------------|
----------------------------------|------------------------------------|


                                                                      
----------------------------------|----------------------------------|
----------------------------------|--------------8-8-7-7-7-7---------|
--9-9-9-9-9-9-9-9-9-9-9-9-9-9-9-9-|--7-7-7-7-7-7-------------7-7-7-7-|
----------------------------------|----------------------------------|
----------------------------------|----------------------------------|
----------------------------------|----------------------------------|


                                                               
-----------------------------|--------------------------------|
--------------7--8------8----|--------------------------------|
--9-9-9-9-9-9-7--9--9-9-9----|----------------------9----7----|
-----------------------------|------------7---------9----7----|
-----------------------------|--7--9--10-----10--9--7----5----|
-----------------------------|--------------------------------|


                                                          
--------------------|------------------------------------|
--------------------|------------------------------------|
--7--------6--------|------------------------------------|
--------------------|------------------------------------|
--5--------4--------|--2---------------------------------|
--------------------|--0----0--0--0--0--0----0--0--0--0--|


                                                                           
----------------------------------|---------------------------------------|
----------------------------------|---------------------------------------|
----------------------------------|---------------------------------------|
----------------------------------|-----------------------------7h-9h-11--|
--10----9----7----------7----9----|---------------------------------------|
------------------10--------------|--0--0--0--0--0--0--5h-7h-9------------|


                                                                           
--------------------|--------------------------------|--------------------|
--------------------|--------------------------------|--------------------|
--------------------|--------------------------------|--------------------|
--5--------4--------|--------------------------------|--7--------9--------|
--5--------4--------|--------------------------------|--7--------9--------|
--3--------2--------|--0--0-0-0-0-0-0-0--0-0-0-0-0-0-|--5--------7--------|


                                                                
-----------------------|-------------------|-------------------|
-----------------------|-------------------|-------------------|
-----------------------|-------------------|-------------------|
--10----12----9--------|--2----------------|-------------2-----|
--10----12----9--------|--2----------------|-------------2-----|
--8-----10----7--------|--0----------------|-------------0-----|


                                                                           
-------------------|---------------------|--------------------------------|
-------------------|---------------------|--------------------------------|
-------------------|--5----7----9--------|--------------------------------|
---2---------------|--5----7----9--------|--------------------------------|
---2---------------|--3----5----7--------|--------------------------------|
---0---------------|---------------------|--0-0-0-0-0--0-0-0--0-0-0-0-0-0-|


                                                                  
--------------------------------|--------------------------------|
--------------------------------|--------------------------------|
--------------------------------|--------------------------------|
--------------------------------|--------------------------------|
--------------------------------|--------------------------------|
--0-0-0-0-0--0-0-0--0-0-0-0-0-0-|--0-0-0-0-0--0-0-0--0-0-0-0-0-0-|


                                                                  
------------------------------|----------------------------------|
------------------------------|----------------------------------|
------------------10--7--9----|----------------------------------|
------------------10--7--9----|----------------------------------|
------------------8---5--7----|--7-7-7-7-7-7-7-7-7-7-7-7-7-7-7-7-|
--0-0-0-0-0-0-0-0-------------|----------------------------------|


                                                               
----------------------------------|---------------------------|
----------------------------------|---------------------------|
----------------------------------|---------------------------|
----------------------------------|-------------7------7------|
--7-7-7-7-7-7-7-7-7-7-7-7-7-7-7-7-|--7------10-----10-----10--|
----------------------------------|---------------------------|


                                                         
-----------------------------|--------------------------|
-----------------------------|--------------------------|
--7h9p7----------------------|--------------------------|
---------10--9--7------------|--9--------9--------9-----|
-------------------10--9--6--|--7--7--7--7--7--7--7--7--|
-----------------------------|--------------------------|


                                                      
--------------------------|--------------------------|
--------------------------|--------------------------|
--------------------------|--------------------------|
--9--------------------7--|--9--------9--------9-----|
--6--6--6--------6--9-----|--7--7--7--7--7--7--7--7--|
-----------5--8-----------|--------------------------|


                                                      
--------------------------|--------------------------|
--------------------------|--------------------------|
--------------------------|--------------------------|
--9--------------------7--|--9--------9--------9-----|
--6--6--6--------6--9-----|--7--7--7--7--7--7--7--7--|
-----------5--8-----------|--------------------------|


                                                      
--------------------------|--------------------------|
--------------------------|--------------------------|
--------------------------|--------------------------|
--9--------9--------9-----|--9--------9--------9-----|
--6--6--6--6--6--6--6--6--|--7--7--7--7--7--7--7--7--|
--------------------------|--------------------------|


                                                            
--------------------------------|--------------------------|
--------------------------------|--------------------------|
--------------8h9h11p9h8h-------|--------------------------|
--9----------------------10p9p7-|--9--------9--------9-----|
--9--9--9--9--------------------|--7--7--7--7--7--7--7--7--|
--------------------------------|--------------------------|


                                                      
--------------------------|--------------------------|
--------------------------|--------------------------|
--------------------------|--------------------------|
--9--------------------7--|--9--------9--------9-----|
--6--6--6--------6--9-----|--7--7--7--7--7--7--7--7--|
-----------5--8-----------|--------------------------|


                                                      
--------------------------|--------------------------|
--------------------------|--------------------------|
--------------------------|--------------------------|
--9--------------------7--|--9--------9--------9-----|
--6--6--6--------6--9-----|--7--7--7--7--7--7--7--7--|
-----------5--8-----------|--------------------------|


                                                      
--------------------------|--------------------------|
--------------------------|--------------------------|
--------------------------|--------------------------|
--9--------9--------9-----|--9--------9--------9-----|
--6--6--6--6--6--6--6--6--|--7--7--7--7--7--7--7--7--|
--------------------------|--------------------------|


                                                           
--------------------------------|-------------------------|
--------------------------------|-------------------------|
--------------8h9h11p9p8h-------|-------------------------|
--9----------------------10p9p7-|--5----------------------|
--9--9--9--9--------------------|--5----5--5--5--5--5--5--|
--------------------------------|--3----3--3--3--3--3--3--|


                                                                  
--------------------------|------------------|-------------------|
--------------------------|------------------|-------------------|
--------------------------|------------------|--5----------------|
-----------------------7--|------------------|--5----------------|
--5--5--5--5--5--5--5--7--|------------------|--3----------------|
--3--3--3--3--3--3--3--5--|------------------|-------------------|


                                                             
---------------------|------------------|-------------------|
---------------------|------------------|-------------------|
------------------5--|------------------|-------------------|
--7--------5------5--|------------------|--7----------------|
--7--------5------3--|------------------|--7----------------|
--5--------3---------|------------------|--5----------------|


                                                                          
-------------------|--------------------------|--------------------------|
-------------------|--------------------------|--------------------------|
--5----------------|--------------------------|--------------------------|
--5----------------|--------------------------|--------------------------|
--3----------------|--2--2--2--2--2--2--2--2--|--2--2--2--2--2--2--2--2--|
-------------------|--0--0--0--0--0--0--0--0--|--0--0--0--0--0--0--0--0--|


                                                              
-------------------|-------------------|---------------------|
-------------------|-------------------|---------------------|
-------------------|--5----------------|------------------5--|
--7----------------|--5----------------|--7--------5------5--|
--7----------------|--3----------------|--7--------5------3--|
--5----------------|-------------------|--5--------3---------|


                                                           
------------------|-------------------|-------------------|
------------------|-------------------|-------------------|
------------------|-------------------|--5----------------|
------------------|--7----------------|--5----------------|
------------------|--7----------------|--3----------------|
------------------|--5----------------|-------------------|


                                                      
--------------------------|--------------------------|
--------------------------|--------------------------|
--------------------------|--------------------------|
--------------------------|--------------------------|
--2--2--2--2--2--2--2--2--|--2--2--2--2--2--2--2--2--|
--0--0--0--0--0--0--0--0--|--0--0--0--0--0--0--0--0--|


                                                                  
----------------------------|------------------------------------|
----------------------------|------------------------------------|
----------------------------|--9----10----10----9----10----10----|
----------------------7--9--|--9----10----10----9----10----10----|
--10--9--8--7--9--10--------|--7----8-----8-----7----8-----8-----|
----------------------------|------------------------------------|


                                                              
----------------------------|--------------------------------|
----------------------------|--------------------------------|
----------------------------|--9----8----8----9----8----8----|
----------------------7--9--|--9----8----8----9----8----8----|
--10--9--8--7--9--10--------|--7----6----6----7----6----6----|
----------------------------|--------------------------------|


                                                                         
--------------------|----------------------|----------------------------|
--------------------|--12--------13--------|----------------------------|
--------------------|--9---------10--------|----------------------------|
--2--2--------------|--9---------10--------|----------------------7--9--|
--2--2--------------|----------------------|--10--9--8--7--9--10--------|
--0--0--------------|----------------------|----------------------------|


                                                                     
----------------------|----------------------|----------------------|
----------------------|----------------------|--12--------13--------|
-------4----9---------|-----------------7----|--9---------10--------|
--2----4----9----8----|--7----2----5----7----|--9---------10--------|
--2----2----7----8----|--7----2----5----5----|----------------------|
--0--------------6----|--5----0----3---------|----------------------|


                                                                           
----------------------------|----------------------|----------------------|
----------------------------|----------------------|----------------------|
----------------------------|-------4----9---------|-----------------7----|
----------------------7--9--|--2----4----9----8----|--7----2----5----7----|
--10--9--8--7--9--10--------|--2----2----7----8----|--7----2----5----5----|
----------------------------|--0--------------6----|--5----0----3---------|


                                                                               
--------------------------|------------------------|--------------------------|
--------------------------|------------------------|--------------------------|
--------------------------|------------------------|--------------------------|
--7--------7--------7-----|--5-----5----7----------|--7--------7--------7-----|
--7--------7--------7-----|--5-----5----7----------|--7--------7--------7-----|
--5--5--5--5--5--5--5--5--|--3--3--3----5----5--5--|--5--5--5--5--5--5--5--5--|


                                                                          
----------------------|--------------------------|-----------------------|
----------------------|--------------------------|-----------------------|
----------------------|--------------------------|-----------------------|
--5----10----7--------|--7--------7--------7-----|--5----10----7----9----|
--5----10----7--------|--7--------7--------7-----|--5----10----7----9----|
--3----8-----5--------|--5--5--5--5--5--5--5--5--|--3----8-----5----7----|


                                                                         
-----------------------------|---------------------|--------------------|
-----------------------------|---------------------|--------------------|
-----------------------------|-------7-------------|-----------7--------|
--10--------10--------10-----|--5----7----7--------|--7--------7--------|
--10--------10--------10-----|--5----5----7--------|--7--------5--------|
--8---8--8--8---8--8--8---8--|--3---------5--------|--5-----------------|


                                                                
--------------------|--------------------|---------------------|
--------------------|--------------------|---------------------|
-----------5--------|-----------4--------|---------------------|
--5--------5--------|--3--------4--------|--2----5----7--------|
--5--------3--------|--3--------2--------|--2----5----7--------|
--3-----------------|--1-----------------|--0----3----5--------|


                                                                               
--------------------------|------------------------|--------------------------|
--------------------------|------------------------|--------------------------|
--------------------------|------------------------|--------------------------|
--7--------7--------7-----|--5-----5----7----------|--7--------7--------7-----|
--7--------7--------7-----|--5-----5----7----------|--7--------7--------7-----|
--5--5--5--5--5--5--5--5--|--3--3--3----5----5--5--|--5--5--5--5--5--5--5--5--|


                                                                          
----------------------|--------------------------|-----------------------|
----------------------|--------------------------|-----------------------|
----------------------|--------------------------|-----------------------|
--5----10----7--------|--7--------7--------7-----|--5----10----7----9----|
--5----10----7--------|--7--------7--------7-----|--5----10----7----9----|
--3----8-----5--------|--5--5--5--5--5--5--5--5--|--3----8-----5----7----|


                                                                            
-----------------------------|---------------------|-----------------------|
-----------------------------|---------------------|-----------------------|
-----------------------------|-------7-------------|-----------------------|
--10--------10--------10-----|--5----7----7--------|--9------11------12----|
--10--------10--------10-----|--5----5----7--------|-----------------------|
--8---8--8--8---8--8--8---8--|--3---------5--------|-----------------------|


                                                                               
----------------------------|-----------------------|-------------------------|
----------------------------|-----------------------|-------------------------|
----------------------------|-----------------------|----------------9~-------|
--11------11--12--11--9--7--|--9------11------12----|--11----11--12-----------|
----------------------------|-----------------------|-------------------------|
----------------------------|-----------------------|-------------------------|


                                                                               
-----------------------|-----------------------------|------------------------|
-----------------------|-----------------------------|------------------------|
-----------------------|--------------------------9--|--11--------------11----|
--9------11------12----|--11------11--12--11--12-----|----------12------------|
-----------------------|-----------------------------|------------------------|
-----------------------|-----------------------------|------------------------|


                                                  
-------------------------|-----------------------|
-------10----------------|-----------------------|
--9--------12--11--------|--9------11------12----|
-------------------------|-----------------------|
-------------------------|-----------------------|
-------------------------|-----------------------|


                                                         
--------------------------------|-----------------------|
-----------------10-------------|-----------------------|
--11------9--11------12--11--7--|--9------11------12----|
------12------------------------|-----------------------|
--------------------------------|-----------------------|
--------------------------------|-----------------------|


                                                    
---------------------------|-----------------------|
---------------------------|-----------------------|
--11------9--11--12~-------|--9------11------12----|
------12-------------------|-----------------------|
---------------------------|-----------------------|
---------------------------|-----------------------|


                                                                    
--------------------------------|----------------------------------|
-----------------10-------------|----------------------------------|
--11------9--11------12--11--7--|----------------------------------|
------12------------------------|----------------------------------|
--------------------------------|--7-7-7-7-5-5-5-5-----------------|
--------------------------------|------------------7-7-7-7-5-5-5-5-|


                                                                   
--------------------------------------|---------------------------|
--------------------------------------|---------------------------|
--------------------------------------|---------------------------|
--------------------------------------|-------------7------7------|
--10-10-10-10-9-9-9-9-7-7-7-7-5-5-5-5-|--7------10-----10-----10--|
--------------------------------------|---------------------------|


                                                         
-----------------------------|--------------------------|
-----------------------------|--------------------------|
--7h9p7----------------------|--------------------------|
---------10--9--7------------|--9--------9--------9-----|
-------------------10--9--6--|--7--7--7--7--7--7--7--7--|
-----------------------------|--------------------------|


                                                      
--------------------------|--------------------------|
--------------------------|--------------------------|
--------------------------|--------------------------|
--9--------------------7--|--9--------9--------9-----|
--6--6--6--------6--9-----|--7--7--7--7--7--7--7--7--|
-----------5--8-----------|--------------------------|


                                                      
--------------------------|--------------------------|
--------------------------|--------------------------|
--------------------------|--------------------------|
--9--------------------7--|--9--------9--------9-----|
--6--6--6--------6--9-----|--7--7--7--7--7--7--7--7--|
-----------5--8-----------|--------------------------|


                                                      
--------------------------|--------------------------|
--------------------------|--------------------------|
--------------------------|--------------------------|
--9--------9--------9-----|--9--------9--------9-----|
--6--6--6--6--6--6--6--6--|--7--7--7--7--7--7--7--7--|
--------------------------|--------------------------|


                                                            
--------------------------------|--------------------------|
--------------------------------|--------------------------|
--------------8h9h11p9p8h-------|--------------------------|
--9----------------------10p9p7-|--9--------9--------9-----|
--9--9--9--9--------------------|--7--7--7--7--7--7--7--7--|
--------------------------------|--------------------------|


                                                      
--------------------------|--------------------------|
--------------------------|--------------------------|
--------------------------|--------------------------|
--9--------------------7--|--9--------9--------9-----|
--6--6--6--------6--9-----|--7--7--7--7--7--7--7--7--|
-----------5--8-----------|--------------------------|


                                                      
--------------------------|--------------------------|
--------------------------|--------------------------|
--------------------------|--------------------------|
--9--------------------7--|--9--------9--------9-----|
--6--6--6--------6--9-----|--7--7--7--7--7--7--7--7--|
-----------5--8-----------|--------------------------|


                                                                  
--------------------------|--------------------------------------|
--------------------------|--------------------------------------|
--------------------------|--------------------------------------|
--9--------9--------9-----|------------------7-7-7-7-10-10-10-10-|
--6--6--6--6--6--6--6--6--|--6-6-6-6-9-9-9-9---------------------|
--------------------------|--------------------------------------|


                                                                               
----------------------------------------------|-------------------------------|
----------------------10-10-10-10-13-13-13-13-|-------------------------------|
--8-8-8-8-11-11-11-11-------------------------|-----------------7----9--------|
----------------------------------------------|-----------------7----9--------|
----------------------------------------------|--2----2----2----5----7--------|
----------------------------------------------|--0----0----0------------------|


                     
-------------------||
-------------------||
--9\---------------||
--9\---------------||
--7\---------------||
-------------------||



Wrath Within                                   


                                                               Children of Bodom
Guitar fills and solos
Tab by Siroa : death_50@hotmail.com



                                                         
D||------|------|-------------------|-------------------|
A||------|------|-------------------|-------------------|
F||------|------|-------------------|-------------------|
C||------|------|----------9/-------|-------------------|
G||------|------|-------------------|--9/---------------|
D||------|------|-------------------|-------------------|


                                                                             
---------------------------|-------------------|----------------------------|
---------------------------|-------------------|---------------------10-----|
------------------------8--|------8------------|-------------------------6--|
-----7--8--10--8--7--6-----|-------------------|-----7--8--10--8--7---------|
--0------------------------|-------------------|--0-------------------------|
---------------------------|-------------------|----------------------------|


                                                                   
-------------------|---------------------------|------------------|
-------------------|---------------------------|------------------|
------6------------|------------------------8~-|------------------|
-------------------|-----7--8--10--8--7--6-----|------------------|
-------------------|--0------------------------|------------------|
-------------------|---------------------------|------------------|


                                                                              
---------------------------|---------------------|---------------------------|
---------------------------|---------------------|---------------------------|
---------------------------|---------------------|------------------------8--|
-----7--9--10--9--7--6--6~-|--------------6/-18/-|-----7--9--10--9--7--6-----|
--0------------------------|---------------------|--0------------------------|
---------------------------|---------------------|---------------------------|


                                                                     
-------------------|----------------------------|-------------------|
-------------------|---------------------10-----|-------------------|
------8------------|-------------------------6--|------6------------|
-------------------|-----7--9--10--9--7---------|-------------------|
-------------------|--0-------------------------|-------------------|
-------------------|----------------------------|-------------------|


                                                                           
---------------------------|------------------|---------------------------|
---------------------------|------------------|---------------------------|
---------------------------|------------------|---------------------------|
-----7--9--10--9--7--6--5~-|------------------|-----7--9--10--9--7--6--6~-|
--0------------------------|------------------|--0------------------------|
---------------------------|------------------|---------------------------|


                                                                        
------------------|---------------------------|------------------------|
------------------|---------------------------|------------------------|
------------------|------------------------8--|------8--8--8--8--8--8--|
------------------|-----7--8--10--8--7--6-----|------------------------|
------------------|--0------------------------|------------------------|
------------------|---------------------------|------------------------|


                                                                             
----------------------------|-------------------|---------------------------|
---------------------10-----|-------------------|---------------------------|
-------------------------6--|------6------------|------------------------8~-|
-----7--8--10--8--7---------|-------------------|-----7--8--10--8--7--6-----|
--0-------------------------|-------------------|--0------------------------|
----------------------------|-------------------|---------------------------|


                                                                           
------------------|---------------------------|------|------|------|------|
------------------|---------------------------|------|------|------|------|
------------------|---------------------------|------|------|------|------|
------------------|-----7--9--10--9--7--6--6--|------|------|------|------|
------------------|--0------------------------|------|------|------|------|
------------------|---------------------------|------|------|------|------|


                                                                             
------|------|------|------|------|------|------|------|------|------|------|
------|------|------|------|------|------|------|------|------|------|------|
------|------|------|------|------|------|------|------|------|------|------|
------|------|------|------|------|------|------|------|------|------|------|
------|------|------|------|------|------|------|------|------|------|------|
------|------|------|------|------|------|------|------|------|------|------|


                                                                             
------|------|------|------|------|------|------|------|------|------|------|
------|------|------|------|------|------|------|------|------|------|------|
------|------|------|------|------|------|------|------|------|------|------|
------|------|------|------|------|------|------|------|------|------|------|
------|------|------|------|------|------|------|------|------|------|------|
------|------|------|------|------|------|------|------|------|------|------|


                                                                            
------|------|------|---------------------|--------------------------------|
------|------|------|---------------------|------------------------5-5-5-5-|
------|------|------|---------------------|-----------------4--4-4---------|
------|------|------|--5----4----5--------|--5-5-5-5-5--5-5----------------|
------|------|------|---------------------|--------------------------------|
------|------|------|---------------------|--------------------------------|


                                                                      
--------------------------------|------------------------------------|
-----------------5--5-5-8-8-8-8-|----------5--5-5-8--8-8-12-12-12-12-|
-------------4-4----------------|--4-4-4-4---------------------------|
--5-5-5-5-5---------------------|------------------------------------|
--------------------------------|------------------------------------|
--------------------------------|------------------------------------|


                                                                        
----------------------13--10--12~---|----------------------------------|
--8-8-8-8-12-12-12-12---------------|--------------------------5-5-5-5-|
------------------------------------|------------------4-4-4-4---------|
------------------------------------|--2-2-2-2-5-5-5-5-----------------|
------------------------------------|----------------------------------|
------------------------------------|----------------------------------|


                                                                             
----------------------------------|------|------|------|------|------|------|
------------------5-5-5-5-8-8-8-8-|------|------|------|------|------|------|
----------4-4-4-4-----------------|------|------|------|------|------|------|
--5-5-5-5-------------------------|------|------|------|------|------|------|
----------------------------------|------|------|------|------|------|------|
----------------------------------|------|------|------|------|------|------|


                                                                             
------|------|------|------|------|------|------|------|------|------|------|
------|------|------|------|------|------|------|------|------|------|------|
------|------|------|------|------|------|------|------|------|------|------|
------|------|------|------|------|------|------|------|------|------|------|
------|------|------|------|------|------|------|------|------|------|------|
------|------|------|------|------|------|------|------|------|------|------|


                                                                 
------|------|---------------------|----17----------------------|
------|------|--0/-------------16--|--------13------------------|
------|------|---------------------|------------14--------------|
------|------|---------------------|----------------13------13--|
------|------|---------------------|----------------------------|
------|------|---------------------|----------------------------|


                                                                              
------------------------------|--8-12-8---------8-12-10-14-10----------10-14-|
--------------13r-13----------|---------10---10---------------12----12-------|
--14--------------------14----|------------9---------------------11----------|
------13----------------------|----------------------------------------------|
----------12------------------|----------------------------------------------|
------------------------------|----------------------------------------------|


                                                                         
--12-17-12----------12-17-24----5/-17--|----17------17------17------17--|
-----------15----15--------------------|--------20b-----20b-----20b-----|
--------------14-----------------------|--------------------------------|
---------------------------------------|--------------------------------|
---------------------------------------|--------------------------------|
---------------------------------------|--------------------------------|


                                                                               
--20b---20--20r-----5/-12--|--13-12-10----------------10-12-13-15-13-12-10----|
---------------------------|-----------13-12-10-12-13----------------------13-|
---------------------------|--------------------------------------------------|
---------------------------|--------------------------------------------------|
---------------------------|--------------------------------------------------|
---------------------------|--------------------------------------------------|


                                                                   
--------------10-12-13-12/---------|------------------------------|
--12-10-12-13----------------------|--------------12/-13--13--15--|
-----------------------------------|--------7/-9------------------|
-----------------------------------|-----7------------------------|
--------------------------------5/-|--7---------------------------|
-----------------------------------|------------------------------|


                                                                                
----------------------------|--------------------------------------------------|
--15--15--13--12--13r-------|--------------------------------------------------|
----------------------------|-----------------------------------------------14-|
----------------------------|--------------------------14----------14-15-17----|
----------------------------|-----------------13-15-17----17-15-17-------------|
----------------------------|--17-15-13-15-17----------------------------------|


                                                                          
-----------------------------------15-17-19-20-22-|--24--------24~-------|
-----------------------15-18-17-18----------------|----------------------|
--16-14----14-17-16-17----------------------------|----------------------|
--------17----------------------------------------|----------------------|
--------------------------------------------------|----------------------|
--------------------------------------------------|----------------------|


                                                                  
--22b-20----------------------|--15----14--12--15----14----12----|
---------22-------------------|--18----17--15--18----17----15----|
-------------20--17b----------|----------------------------------|
------------------------------|----------------------------------|
------------------------------|----------------------------------|
---------------------15/------|----------------------------------|


                                                                                
--14------x--20-23-20----------|------|------|------|------|-------------------|
--17------x-----------21-------|------|------|------|------|-------------------|
----------x--------------20----|------|------|------|------|--5/---------------|
----------x--------------------|------|------|------|------|--5/---------------|
-------------------------------|------|------|------|------|-------------------|
-------------------------------|------|------|------|------|-------------------|


                                                        
------|------|------|------|------|------|------|------|
------|------|------|------|------|------|------|------|
------|------|------|------|------|------|------|------|
------|------|------|------|------|------|------|------|
------|------|------|------|------|------|------|------|
------|------|------|------|------|------|------|------|


                                                                    
--12----------12----------12------|--19----------19--20------------|
------13----------13----------13--|------20--------------22--------|
----------14----------14----------|----------19--------------21----|
----------------------------------|--------------------------------|
----------------------------------|--------------------------------|
----------------------------------|--------------------------------|


                                                                
--20----------------------20------|--19--15------19--17--------|
------22--------------22------22--|----------15----------------|
----------21------21--------------|----------------------------|
--------------22------------------|----------------------------|
----------------------------------|----------------------------|
----------------------------------|----------------------------|


                                                                    
--12----------12----------12------|--19----------19--20------------|
------13----------13----------13--|------20--------------22--------|
----------14----------14----------|----------19--------------21----|
----------------------------------|--------------------------------|
----------------------------------|--------------------------------|
----------------------------------|--------------------------------|


                                                                        
--20----------------------20------|--19--15------19--17-19-17-15-17----|
------22--------------22------22--|----------15------------------------|
----------21------21--------------|------------------------------------|
--------------22------------------|------------------------------------|
----------------------------------|------------------------------------|
----------------------------------|------------------------------------|


                                                   
--------------------------13--10--12--13--12--10--|
--13--10--12--13--12--10--------------------------|
--------------------------------------------------|
--------------------------------------------------|
--------------------------------------------------|
--------------------------------------------------|


                                               
------------------------12--8--10--12--10--8--|
--12--8--10--12--10--8------------------------|
----------------------------------------------|
----------------------------------------------|
----------------------------------------------|
----------------------------------------------|


                                                                                
----------------------10--7--8--10--8--7/-|--16--------------------------------|
--10--6--8--10--8--6----------------------|------17--15--17--13--15--13--------|
------------------------------------------|------------------------------------|
------------------------------------------|------------------------------------|
------------------------------------------|------------------------------------|
------------------------------------------|------------------------------------|


                                                                    
--12----------12----------12------|--19----------19--20------------|
------13----------13----------13--|------20--------------22--------|
----------14----------14----------|----------19--------------21----|
----------------------------------|--------------------------------|
----------------------------------|--------------------------------|
----------------------------------|--------------------------------|


                                                   
--20----------------------20----------------------|
------22--------------22------22--------------20--|
----------21------21--------------21------21------|
--------------22----------------------22----------|
--------------------------------------------------|
--------------------------------------------------|


                                                                        
--19------------------19--17--------|--12----------12----------12------|
------20----------------------------|------13----------13----------13--|
----------21------21----------------|----------14----------14----------|
--------------21--------------------|----------------------------------|
------------------------------------|----------------------------------|
------------------------------------|----------------------------------|


                                 
--19----------19--20------------|
------20--------------22--------|
----------19--------------21----|
--------------------------------|
--------------------------------|
--------------------------------|


                                                   
-----------10-12-13-12-10-12-10----------------10-|
--10-12-13----------------------13-12-10-12-13----|
--------------------------------------------------|
--------------------------------------------------|
--------------------------------------------------|
--------------------------------------------------|


                                                                
--12-13-15-13-12-10-----------------|--------------------------|
--------------------13-12-10--------|--------------------------|
------------------------------------|--------------------------|
------------------------------------|--9--------9--------9-----|
------------------------------------|--9--------9--------9-----|
------------------------------------|--7--7--7--7--7--7--7--7--|


                                                                           
------------------------|--------------------------|----------------------|
------------------------|--------------------------|----------------------|
------------------------|--------------------------|----------------------|
--7-----7----9----------|--9--------9--------9-----|--7----12----9--------|
--7-----7----9----------|--9--------9--------9-----|--7----12----9--------|
--5--5--5----7----7--7--|--7--7--7--7--7--7--7--7--|--5----10----7--------|


                                                    
--------------------------|------------------------|
--------------------------|------------------------|
--------------------------|------------------------|
--9--------9--------9-----|--7----12----9----11----|
--9--------9--------9-----|--7----12----9----11----|
--7--7--7--7--7--7--7--7--|--5----10----7----9-----|


                                                         
----------------------------------|---------------------|
----------------------------------|---------------------|
----------------------------------|-------9-------------|
--12----------12----------12------|--7----9----9--------|
--12----------12----------12------|--7----7----9--------|
--10--10--10--10--10--10--10--10--|--5---------7--------|


                                                                               
--------------------------|------------------------|--------------------------|
--------------------------|------------------------|--------------------------|
--9--------9--------9-----|--7-----7----9----------|--9--------9--------9-----|
--9--------9--------9-----|--7-----7----9----------|--9--------9--------9-----|
--7--7--7--7--7--7--7--7--|--5--5--5----7----7--7--|--7--7--7--7--7--7--7--7--|
--------------------------|------------------------|--------------------------|


                                                                           
----------------------|--------------------------|------------------------|
----------------------|--------------------------|------------------------|
--7----12----9--------|--9--------9--------9-----|--7-----7----9----------|
--7----12----9--------|--9--------9--------9-----|--7-----7----9----------|
--5----10----7--------|--7--7--7--7--7--7--7--7--|--5--5--5----7----7--7--|
----------------------|--------------------------|------------------------|


                                                                             
------|------|------|------|------|------|------|------|------|------|------|
------|------|------|------|------|------|------|------|------|------|------|
------|------|------|------|------|------|------|------|------|------|------|
------|------|------|------|------|------|------|------|------|------|------|
------|------|------|------|------|------|------|------|------|------|------|
------|------|------|------|------|------|------|------|------|------|------|


                                                                              
------|------|------|------|------|------|------|------|------|------|------||
------|------|------|------|------|------|------|------|------|------|------||
------|------|------|------|------|------|------|------|------|------|------||
------|------|------|------|------|------|------|------|------|------|------||
------|------|------|------|------|------|------|------|------|------|------||
------|------|------|------|------|------|------|------|------|------|------||


Children of Bodom albums
2005 Trashed, Lost & Strung Out (EP)
2003 Hate Crew Deathroll
2001 Tokyo Warhearts (Live)
2001 Follow the Reaper
1999 Hatebreeder
1998 Something Wild
Hatebreeder tabs
01Warheart tabbass tab
02Silent Night, Bodom Night tabbass tab
03Hatebreeder tabbass tab
04Bed of Razors tabbass tab
05Towards Dead End tabbass tab
06Black Widow tabbass tab
07Wrath Within tabbass tab
08Children of Bodom tabbass tab
09Downfall tabbass tab

 

1