Search tabs:
Browse artists: 0-9 | A | B | C | D | E | F | G | H | I | J | K | L | M | N | O | P | Q | R | S | T | U | V | W | X | Y | Z
/ Children of Bodom / Something Wild (1998) / Red Light in My Eyes, Pt. 1 guitar tab

RED LIGHT IN MY EYES Pt. 1

from: CHILDREN OF BODOM
      SOMETHING WILD

Tabbed by BiNGeR

                                                                              
D#||--------------------||----------------------------|----------------------|
A#||--------------------||----------------------------|-------5---------5----|
F#||--------------------||*------------------------7--|--5-------------------|
C#||----------12\\-------||*--7-----7--10--9-----9-----|------------6---------|
G#||----------10\\-------||------7------------7--------|----------------------|
D#||--------------------||----------------------------|----------------------|


                                                                              
---------------------------|---------------------------||--------------------|
---------------------------|---------------------------||--------------------|
------------------------7--|--5--4--------------------*||*--2----------------|
--7-----7--10--9-----9-----|--------7--6--4--------4--*||*--2----------------|
-----7------------7--------|-----------------7--6------||---0----------------|
---------------------------|---------------------------||--------------------|


                                                                    
--|--|--|--|--|--|---||---|--|--|--|--|--|--|---------------------||
--|--|--|--|--|--|---||---|--|--|--|--|--|--|----------10---------||
--|--|--|--|--|--|--*||*--|--|--|--|--|--|--|--------------------*||
--|--|--|--|--|--|--*||*--|--|--|--|--|--|--|--------------------*||
--|--|--|--|--|--|---||---|--|--|--|--|--|--|---------------------||
--|--|--|--|--|--|---||---|--|--|--|--|--|--|---------------------||


                                                                         
------------------|--------------------------|--------------------------|
------------------|--------------------------|--------------------------|
------------------|--------------------------|--------------------------|
------------------|--2--2--2--2--2--2--2--2--|--2--2--2--2--2--2--2--2--|
------------------|--0--0--0--0--0--0--0--0--|--0--0--0--0--0--0--0--0--|
------------------|--------------------------|--------------------------|


                                                                       
-----------------------|----------------------|-----------------------|
-----------------------|----------------------|-----------------------|
--5---------2--2----2--|----2----2--2----2----|------------2--2----2--|
--5----5----2--2----2--|----2----2--2----2----|--2----2----2--2----2--|
--3----5----0--0----0--|----0----0--0----0----|--2----2----0--0----0--|
-------3---------------|----------------------|--0----0---------------|


                                                                      
----------------------|-----------------------|----------------------|
----------------------|-----------------------|----------------------|
----2----2--2----2----|-----------------------|----------------------|
----2----2--2----2----|--9----8----2--2----2--|----2----2--2----2----|
----0----0--0----0----|--7----6----2--2----2--|----2----2--2----2----|
----------------------|------------0--0----0--|----0----0--0----0----|


                                                                     
----------------------|----------------------|------------5----6----|
----------------------|----------------------|------------7----8----|
----------------------|----------------------|----------------------|
--8--------2--2----2--|----2----2--2----2----|--5----6--------------|
--6--------2--2----2--|----2----2--2----2----|--7----8--------------|
-----------0--0----0--|----0----0--0----0----|----------------------|


                                                        
|------------------------------|-----------------------|
|-----------------------9--10--|--9--------------------|
|*------------7--9--10---------|-------10----5---------|
|*--7--9--10-------------------|------------------6----|
|------------------------------|-----------------------|
|------------------------------|-----------------------|


                                                          
----------------------------|---------------------------||
---------------------9--10--|--8------------------------||
------------------9---------|-------9----5--7--5--2----*||
--7-----7--9--10------------|--------------------------*||
-----7----------------------|---------------------------||
----------------------------|---------------------------||


                                             3x             3x
----------------------|----------------------||---|--|--|---||
----------------------|----------------------||---|--|--|---||
*--7------------7--7--|---------------------*||*--|--|--|--*||
*--7------------7--7--|--8--------10--------*||*--|--|--|--*||
---5------------5--5--|--8--------10---------||---|--|--|---||
----------------------|--6--------8----------||---|--|--|---||


Children of Bodom albums
2005 Trashed, Lost & Strung Out (EP)
2003 Hate Crew Deathroll
2001 Tokyo Warhearts (Live)
2001 Follow the Reaper
1999 Hatebreeder
1998 Something Wild
Something Wild tabs
01Deadnight Warrior tabbass tab
02In the Shadows tabbass tab
03Red Light in My Eyes, Pt. 1 tabbass tab
04Red Light in My Eyes, Pt. 2 tabbass tab
05Lake Bodom tabbass tab
06The Nail tabbass tab
07Touch Like Angel of Death tabbass tab

 

1