Search tabs:
Browse artists: 0-9 | A | B | C | D | E | F | G | H | I | J | K | L | M | N | O | P | Q | R | S | T | U | V | W | X | Y | Z
/ Children of Bodom / Tokyo Warhearts (Live) (2001) / Silent Night, Bodom Night guitar tab

Children Of Bodom - Silent Night, Bodom Night
Submitted By: JCFL
EMail: josecarlos_fl@hotmail.com


 intro:

 Alexi
|-------------------------------------|---------------------------------------|
|-------------------------------------|----------------------10h12p10---------|
|-------------------------------------|-----------------9-11----------12-11-9-|
|-------------------------------------|---------------9-----------------------|
|-777-777-777-7---7-9-10-7-9----7^^^^-|-777-777-777-7-------------------------|
|---------------7------------10-------|---------------------------------------|
  ... ... ...                           ... ... ...



|-0-3-0000-5-0000-7-----------------|-0-3-0000-5-0000-7---------------12-|
|-0-5-0000-7-0000-8--7-10-8---7---8-|-0-5-0000-7-0000-8--7-10-8---7------|
|---------------------------9---7---|---------------------------9---9----|
|-----------------------------------|------------------------------------|
|-----------------------------------|------------------------------------|
|-----------------------------------|------------------------------------|

 verse:

|-------------------------------------|---------------------------------------|
|-------------------------------------|----------------------10h12p10---------|
|-------------------------------------|-----------------9-11----------12-11-9-|
|-------------------------------------|---------------9-----------------------|
|-777-777-777-7---7-9-10-7-9----7^^^^-|-777-777-777-7-------------------------|
|---------------7------------10-------|---------------------------------------|
  ... ... ...                           ... ... ...
|-------------------------------------|----------------------------|
|-------------------------------------|----------------------------|
|-------------------------------------|----------------------------|
|-------------------------------------|------------------2-2-2-2-2-|
|-777-777-777-7---7-9-10-7-9----7^^^^-|-777-777-777-7----2-2-2-2-2-|
|---------------7------------10-------|------------------0-0-0-0-0-|
  ... ... ...                           ... ... ...

 Bridge:
|----------------------------------------------------------|
|------------------------------------------------7h9p7-----|
|--------------------------------------------7-9-------9-7-|
|------------------------------------------9---------------|
|-10-10-9h10p9-7-6---6-7-9-10-9-9h10p9-7-6-----------------|
|------------------7---------------------------------------|

|---------------------------------------|---------------------14-15-17-17h19-17-|
|---------------------------------------|-15h17p15--13-15-17--------------------|
|---------------------------------------|---------------------------------------|
|----------------------------------(3X)-|---------------------------------------|
|---5--5/7--7--7/9----------------------|---------------------------------------|
|-3----3/5-----5/7--777-777-777777------|---------------------------------------|
|-------------------000-000-000000------|---------------------------------------|
                    ... ... ......

|-15-0-0-0-0-0-17-0-0-0-0-0-|-19-0-0-0-0-0-15-0-0-0-0-0-|
|---------------------------|---------------------------|
|---------------------------|---------------------------|
|---------------------------|---------------------------|
|---------------------------|---------------------------|
|---------------------------|---------------------------|


|----15-19p15-------------14-17p14-17-|-15--------------------0---|
|-17----------17-------15-------------|---------------------------|
|----------------16-14----------------|---------------------------|
|-------------------------------------|---------------------------|
|-------------------------------------|---------------------------|
|-------------------------------------|---------------------------|


|-15-0-0-0-0-0-17-0-0-0-0-0-|-19-0-0-0-0-0-15-0-0-0-0-0-|
|---------------------------|---------------------------|
|---------------------------|---------------------------|
|---------------------------|---------------------------|
|---------------------------|---------------------------|
|---------------------------|---------------------------|


|----12-15p12-------------14-17p14-17-|-15--------------------0---|
|-13----------13-------15-------------|---------------------------|
|----------------12-14----------------|---------------------------|
|-------------------------------------|---------------------------|
|-------------------------------------|---------------------------|
|-------------------------------------|---------------------------|


|-15-0-0-0-0-0-17-0-0-0-0-0-|-19-0-0-0-0-0-15-----------|
|---------------------------|---------------------17----|
|---------------------------|---------------------------|
|---------------------------|---------------------------|
|---------------------------|---------------------------|
|---------------------------|---------------------------|


|----------17----17-19-17-19-17-------|-----------------------0---|
|-20-19-20----20----------------20-19-|-20------------------------|
|-------------------------------------|---------------------------|
|-------------------------------------|---------------------------|
|-------------------------------------|---------------------------|
|-------------------------------------|---------------------------|


|-15-0-0-0-0-0-17-0-0-0-0-0-|-19-0-0-0-0-0-15-----------|
|---------------------------|---------------------19----|
|---------------------------|---------------------------|
|---------------------------|---------------------------|
|---------------------------|---------------------------|
|---------------------------|---------------------------|


|----------17-19-21----------19-20-22-|-22b(24)-------------/14---|
|-17-19-20----------19-20-22----------|---------------------------|
|-------------------------------------|---------------------------|
|-------------------------------------|---------------------------|
|-------------------------------------|---------------------------|
|-------------------------------------|---------------------------|


|-17-14-14-14-14-14-19-14-14-14-14-14-|-21-14-14-14-14-14-17-----16-----|
|-------------------------------------|---------------------------------|
|-------------------------------------|---------------------------------|
|-------------------------------------|---------------------------------|
|-------------------------------------|---------------------------------|
|-------------------------------------|---------------------------------|


|----17-21p17-------------16-19p16-19-|-17--------------------14--|
|-19----------19-------17-------------|---------------------------|
|----------------18-16----------------|---------------------------|
|-------------------------------------|---------------------------|
|-------------------------------------|---------------------------|
|-------------------------------------|---------------------------|


|-17-14-14-14-14-14-19-14-14-14-14-14-|-21-14-14-14-14-14-17-14--16-----|
|-------------------------------------|---------------------------------|
|-------------------------------------|---------------------------------|
|-------------------------------------|---------------------------------|
|-------------------------------------|---------------------------------|
|-------------------------------------|---------------------------------|


|----14-17p14-------------16-19p16-19-|-17--------------------0---|
|-15----------15-------17-------------|---------------------------|
|----------------14-16----------------|---------------------------|
|-------------------------------------|---------------------------|
|-------------------------------------|---------------------------|
|-------------------------------------|---------------------------|


|-15-0-0-0-0-0-17-0-0-0-0-0-|-19-0-0-0-0-0-15-0-0-0-0-0-|
|---------------------------|---------------------------|
|---------------------------|---------------------------|
|---------------------------|---------------------------|
|---------------------------|---------------------------|
|---------------------------|---------------------------|


|----15-19p15-------------14-17p14-17-|-15--------------------0---|
|-17----------17-------15-------------|---------------------------|
|----------------16-14----------------|---------------------------|
|-------------------------------------|---------------------------|
|-------------------------------------|---------------------------|
|-------------------------------------|---------------------------|


|-15-0-0-0-0-0-17-0-0-0-0-0-|-19-0-0-0-0-0-15-0-0-0-0-0-|
|---------------------------|---------------------------|
|---------------------------|---------------------------|
|---------------------------|---------------------------|
|---------------------------|---------------------------|
|---------------------------|---------------------------|


|-20-19-17----------19-17-15----------|---------------------------|
|----------20-19-17----------19-17-15-|-17~-----------------------|
|-------------------------------------|---------------------------|
|-------------------------------------|---------------------------|
|-------------------------------------|---------------------------|
|-------------------------------------|---------------------------|


|--------------------10---|-10b(12)~--------------|
|-10b(12)r10----8---------|-----------------------|
|-------------------------|-----------------------|
|-------------------------|-----------------------|
|-------------------------|-----------------------|
|-------------------------|-----------------------|


|--------|--------|--------|--------|--------|--------|--------|--------|
|--------|--------|--------|--------|--------|--------|--------|--------|
|--------|--------|--------|--------|--------|--------|-5------|--------|
|-2------|--------|-2------|--------|-2------|--------|-5------|--------|
|-2------|--------|-2------|--------|-2------|--------|-3---/X-|---X\---|
|-0------|--------|-0------|--------|-0------|--------|-----/X-|---X\---|


|-----------------|-----------------|-----------------|-----------------|
|-----------------|-----------------|-----------------|-----------------|
|-----------------|-----------------|-----------------|-----------------|
|-----------------|-----------------|-----------------|-----------------|
|-2---------------|-----------------|-2---------------|-------------3---|
|-0---0-0-0---0-0-|-0---0-0-0-0-0-0-|-0---0-0-0---0-0-|-0---0-0-0-0-1---|


|-----------------|-----------------|-----------------|-----------------|
|-----------------|-----------------|-----------------|-----------------|
|-----------------|-----------------|-5---------------|-----------------|
|-----------------|-----------------|-5---------------|-----------------|
|-2---------------|-----/5------/4--|-3-----------/X--|--------X\-------|
|-0---0-0-0---0-0-|-0-0-/3--0-0-/2--|-------------/X--|--------X\-------|


|-----------------|-----------------|-----------------|-----------------|
|-----------------|-----------------|-----------------|-----------------|
|-----------------|-----------------|-----------------|-----------------|
|-----------------|-----------------|-----------------|-----------------|
|-2---------------|-----------------|-2---------------|-------------3---|
|-0---0-0-0---0-0-|-0---0-0-0-0-0-0-|-0---0-0-0---0-0-|-0---0-0-0-0-1---|

                                                       (lead on right)
|-----------------|-----------------|-----------------|-----------------|
|-----------------|-----------------|-----------------|-----------------|
|-2---------------|-4---------------|-5---------------|-7---------------|
|-2---------------|-4---------------|-5---------------|-7/4-------------|
|-0---------------|-2---------------|-3---------------|-5---------------|
|-----------------|-----------------|-----------------|-----------------|

 Solo:

|-------------19----17----|-------------19-17-------|
|-17-19-20-17----20----19-|-17-19-20-17-------20-19-|
|-------------------------|-------------------------|
|-------------------------|-------------------------|
|-------------------------|-------------------------|
|-------------------------|-------------------------|
|
|-------------------------|-------------------------|
|-------------------------|-------------------------|
|-------------------------|-------------------------|
|-9-----------------------|-------------7-----7-----|
|-7-----7--7--7--7--7--7--|-7--7--7--7--5-----5-----|
|-------------------------|-------------------------|


|-------------19----17----|-------------------------|
|-17-19-20-17----20----19-|-20-19-17-16-17~---------|
|-------------------------|-------------------------|
|-------------------------|-------------------------|
|-------------------------|-------------------------|
|-------------------------|-------------------------|
|
|-------------------------|-------------------------|
|-------------------------|-------------------------|
|-------------------------|-------------------------|
|-9-----------------------|-5-----7-----9-----------|
|-7-----7--7--7--7--7--7--|-3-----5-----7-----------|
|-------------------------|-------------------------|


|-------------19----17----|-------------19-17-------|
|-17-19-20-17----20----19-|-17-19-20-17-------20-19-|
|-------------------------|-------------------------|
|-------------------------|-------------------------|
|-------------------------|-------------------------|
|-------------------------|-------------------------|
|
|-------------------------|-------------------------|
|-------------------------|-------------------------|
|-------------------------|-------------------------|
|-9-----------------------|-------------7-----7-----|
|-7-----7--7--7--7--7--7--|-7--7--7--7--5-----5-----|
|-------------------------|-------------------------|


|-------------19----17----|-------------------------|
|-17-19-20-17----20----19-|----20-19-20-17-20-15-17-|
|-------------------------|-17----------------------|
|-------------------------|-------------------------|
|-------------------------|-------------------------|
|-------------------------|-------------------------|
|
|-------------------------|-------------------------|
|-------------------------|-------------------------|
|-------------------------|-5-----------------------|
|-9-----------------------|-5-----------------------|
|-7-----7--7--7--7--7--7--|-3-----------------------|
|-------------------------|-------------------------|


|-------------------------------------|----------17-19-20----------19-20-22-|
|-------------------------------------|-17-19-20----------19-20-22----------|
|----------------------------16-17-19-|-------------------------------------|
|-------------------16-17-19----------|-------------------------------------|
|----------12-14-15-------------------|-------------------------------------|
|-12-14-15----------------------------|-------------------------------------|
|
|-------------------------------------|-------------------------------------|
|-------------------------------------|-------------------------------------|
|-9------------------7----------------|-9------------------7----------------|
|-9------------------7----------------|-9------------------7----------------|
|-7------------------5----------------|-7------------------5----------------|
|-------------------------------------|-------------------------------------|


|-22b(24)-----------------------|----------r22--19----------24-|
|-------------------------------|------------------------------|
|-------------------------------|------------------------------|
|-------------------------------|------------------------------|
|-------------------------------|------------------------------|
|-------------------------------|------------------------------|
|
|-------------------------------|------------------------------|
|-------------------------------|------------------------------|
|-5-----------------------------|------------------------------|
|-5-----------------------------|---------------------------9--|
|-3-----------------------------|---------------------------7--|
|-------------------------------|------------------------------|

  E5
|----24--24p22s19-----22--22--22p19s17--|-19--19--19p17s15---17--17--17p15s14--|
|---------------------------------------|--------------------------------------|
|---------------------------------------|--------------------------------------|
|---------------------------------------|--------------------------------------|
|---------------------------------------|--------------------------------------|
|---------------------------------------|--------------------------------------|

                                                     D5
|-15--15--15p14s12---14---14---14---12--|--------------------------------------|
|---------------------------------------|-15--b(17)--r15----------------/17----|
|---------------------------------------|--------------------------------------|
|---------------------------------------|--------------------------------------|
|---------------------------------------|--------------------------------------|
|---------------------------------------|--------------------------------------|

  C5                                 D5
|-19--17--15----------17--15-------|-17---15---------------------17-19-20-|
|-------------17--19----------17---|----------19---15---17-19-20----------|
|----------------------------------|--------------------------------------|
|----------------------------------|--------------------------------------|
|----------------------------------|--------------------------------------|
|----------------------------------|--------------------------------------|

  E5                                 B5              drop w/bar
|-22--20--19----------20--19-------|--------------------------------------|
|-------------20--22----------20---|-22b(24)---------\/--\/---------------|
|----------------------------------|--------------------------------------|
|----------------------------------|--------------------------------------|
|----------------------------------|--------------------------------------|
|----------------------------------|--------------------------------------|

  C5                                    D5
|-15-12-14-15-14-12-17-14-15-17-15-14-|-19-17-15-------------------17-19-20-|
|-------------------------------------|----------19-17-15/17-19-20----------|
|-------------------------------------|-------------------------------------|
|-------------------------------------|-------------------------------------|
|-------------------------------------|-------------------------------------|
|-------------------------------------|-------------------------------------|

  E5                                    B5
|-22-19-20-22-20-19-24-20-22-24-22-20-|-24b(27)----------24b(27)------------|
|-------------------------------------|-------------------------------------|
|-------------------------------------|-------------------------------------|
|-------------------------------------|-------------------------------------|
|-------------------------------------|-------------------------------------|
|-------------------------------------|-------------------------------------|

  C5
|--------------------------|----------------------------|
|-17-----------------17----|-17------19------17h19p17---|
|--------------------------|----------------------------|
|--------------------------|----------------------------|
|--------------------------|----------------------------|
|--------------------------|----------------------------|

  B5
|---------------20--19--17------|-19--17----------17--------------|
|-16------------------------20--|---------20--19------20--19--17--|
|-------------------------------|---------------------------------|
|-------------------------------|---------------------------------|
|-------------------------------|---------------------------------|
|-------------------------------|---------------------------------|

  C5
|-------------------------------|----------------------------------|
|-\13-------------------13--15--|-17------15a(27)b(29)r(27)--------|
|-------------------------------|-----------------------------17---|
|-------------------------------|----------------------------------|
|-------------------------------|----------------------------------|
|-------------------------------|----------------------------------|

  B5
|----------------14---|-14b(15)-r14-------------|
|------15---17--------|---------------17---15---|-(13\)-
|-16------------------|-------------------------|
|---------------------|-------------------------|
|---------------------|-------------------------|
|---------------------|-------------------------|

                                  Verse again

 Outro:
|-------------------------------------|----------17-19-20----------19-20-22-|
|-------------------------------------|-17-19-20----------19-20-22----------|
|----------------------------16-17-19-|-------------------------------------|
|-------------------16-17-19----------|-------------------------------------|
|----------12-14-15-------------------|-------------------------------------|
|-12-14-15----------------------------|-------------------------------------|
|
|-------------------------------------|-------------------------------------|
|-------------------------------------|-------------------------------------|
|-9------------------7----------------|-9------------------7----------------|
|-9------------------7----------------|-9------------------7----------------|
|-7------------------5----------------|-7------------------5----------------|
|-------------------------------------|-------------------------------------|


|-24-----------------24----19---------|-------------------------------------|
|-------------------------------20----|-17~---------------------------------|
|-------------------------------------|-------------------------------------|
|-------------------------------------|-------------------------------------|
|-------------------------------------|-------------------------------------|
|-------------------------------------|-------------------------------------|
|
|-------------------------------------|-------------------------------------|
|-------------------------------------|-------------------------------------|
|-9-----------------------------------|-------------------------------------|
|-9-------------------2-----2----2----|-2-----------------------------------|
|-7-------------------2-----2----2----|-2-----------------------------------|
|---------------------0-----0----0----|-0-----------------------------------|



TABBED BY JCFL(JOSE CARLOS) josecarlos_fl@hotmail.com...


Children of Bodom albums
2005 Trashed, Lost & Strung Out (EP)
2003 Hate Crew Deathroll
2001 Tokyo Warhearts (Live)
2001 Follow the Reaper
1999 Hatebreeder
1998 Something Wild
Tokyo Warhearts (Live) tabs
01Intro tabbass tab
02Silent Night, Bodom Night tabbass tab
03Lake Bodom tabbass tab
05Bed of Razors tabbass tab
06War of Razors tabbass tab
07Deadnight Warrior tabbass tab
08Hatebreeder tabbass tab
09Touch Like Angel of Death tabbass tab
10Downfall tabbass tab

 

1