Search tabs:
Browse artists: 0-9 | A | B | C | D | E | F | G | H | I | J | K | L | M | N | O | P | Q | R | S | T | U | V | W | X | Y | Z
/ Children of Bodom / Trashed, Lost & Strung Out (EP) (2005) / Trashed, Lost & Strungout guitar tab

Children Of Bodom - Trashed, lost & strungout
Tabbed By: Ian Marshall
Email: ianmarshall2@hotmail.co.uk

Tuning: Full Step Down (D G C F A D)





intro
guitar 2 not alexi
|---------------------------------|
|---------------------------------|
|---------------------------------|
|---------------------------------|
|---------------------------------|
|-00000--00000--00001-1--00001-1--|

then alexi comes in with this  gtr1
|---------------------------------|
|---------------------------------|
|---------------7-6-----6-5-------|
|-7-0---6-5---7-----7-0-----0-6-7-|
|---------------------------------|
|-----0-----0---------------------|

|---------------------------------|
|---------------------------------|
|---------------7-6-----6-0-6-5-0-|
|-7-0---6-5---7-----7-0-----------|
|---------------------------------|
|-----0-----0---------------------|


gtr 2

|---------------------------------|
|---------------------------------|
|---------------------------------|
|-7---------------9---------------|
|-5---------------7---------------|
|---------------------------------|

gtr 1
|---------------------------------|
|---------------------------------|
|---------------7-6-----6-5-------|
|-7-0---6-5---7-----7-0-----0-6-7-|
|---------------------------------|
|-----0-----0---------------------|
gtr 2
|---------------------------------|
|---------------------------------|
|---------------------------------|
|-7---------------9---------------|
|-5---------------7---------------|
|---------------------------------|

gtr 1
|---------------------------------|
|---------------------------------|
|---------------7-6-----6-0-6-5-0-|
|-7-0---6-5---7-----7-0-----------|
|---------------------------------|
|-----0-----0---------------------|

|---------------------------------|
|---------------------------------|
|---------------------------------|
|-7---------------9---------------|
|-5---------------7---------------|
|---------------------------------|


gtr 1
|---------------------------------------------|
|---------------------------------------------|
|-14-11----13------------11-----11--13----13--|
|-------11----14-11---11------12--------14----|
|-------------------9-------12--------14------|
|---------------------------------------------|

gtr 2
|---------------------------------------------|
|---------------------------------------------|
|---------------------------------------------|
|-4--------2--------2----0----------2-----2---|
|-4--------2--------2----0----------2-----2---|
|-4--------2--------2----0----------2-----2---|




|---------------------------------------------|
|---------------------------------------------|
|-14-11----13------------11-----11--13-11--13-|
|-------11----14-11---11------12---------14---|
|-------------------9-------12----------------|
|---------------------------------------------|



|---------------------------------------------|
|---------------------------------------------|
|---------------------------------------------|
|-4--------2--------2----0----------2-----2---|
|-4--------2--------2----0----------2-----2---|
|-4--------2--------2----0----------2-----2---|
alexi plays wunce hten both are playing 2x
|---------------------------------|
|---------------------------------|
|---------------------------------|
|---------------------------------|
|---------------------------------|
|-3-2-2-3-2-2-3-2-3-2-6-5-3-2-1-1-|

Natural harmonics
|--------------------------------nh---|
|-------------------------------(7)---|
|-------------------------------(7)---|
|-------------------------------------|
|-0-0-2p0--0-0-6s2--0-0-2s3--0-0------|
|-0-0-2p0--0-0-6s2--0-0-2s3--0-0------|

|Gtr 2                                |
|--------------------------------nh---|
|-------------------------------(7)---|
|-------------------------------(7)---|
|-------------------------------------|
|-0-0-2p0--0-0-6s2--0-0-2s3--0-0------|
|-0-0-2p0--0-0-6s2--0-0-2s3--0-0------|


 Gtr 1
|-------------------------------------|
|-------------------------------------|
|-------------------------------------|
|----------------5----5---------------|
|-0-0-2p0--0-2-3-3----3----0-2-0-2-3--|
|-0-0-2p0--0-2-3-----------0-2-0-2-3--|

|Gtr 2                                |
|-------------------------------------|

|-------------------------------------|
|----------------5----5---------------|
|--------------------------7-5---5-7--|
|-0-0-2p0--0-2-3---------------8------|
|-0-0-2p0--0-2-3----------------------|




Pre-Chorus

 Gtr 1
|---------------------------------|
|---------------------------------|
|---------------------------------|
|-5-----5-----5-----5-----5---6---|
|-3-----3-----3-----3-----3---4---|
|---------------------------------|
|
|Gtr 2                            |
|---------------------------------|
|---------------------------------|
|---------------------------------|
|-5-----5-----5-----5-----5---6---|
|-3-----3-----3-----3-----3---4---|
|---------------------------------|


 Gtr 1
|---------------------------------|
|---------------------------------|
|---------------------5-------5---|
|-7-7-----7-7-----5-------3-----3-|
|-----5-5-----5-5---3---3---3-----|
|---------------------------------|

|Gtr 2                            |
|---------------------------------|
|---------------------------------|
|-------------------------------5-|
|-------7-------7-------5-3-3-3---|
|-5-5-5---5-5-5---3-3-3-----------|
|---------------------------------|



Gtr 1
|---------------------------------|
|---------------------------------|
|-------ph------------------------|
|-5----(5)~---5-----5-----5---6---|
|-3---x-------3-----3-----3---4---|
|---------------------------------|
|
|Gtr 2                            |
|---------------------------------|
|---------------------------------|
|-------ph------------------------|
|-5----(5)~---5-----5-----5---6---|
|-3---x-------3-----3-----3---4---|
|---------------------------------|

 Both Gtrs
|---------------------------------|
|---------------------------------|
|---------------------------------|
|-----------------12/-------------|
|-5---5---4---4---12/-------------|
|---0---0---0---0-12/-------------|
    .   .   .   .


Verse


Gtr 1
|---------------------------------|
|---------------------------------|
|---------------------------------|
|-5-----5-----5-----5-----5---6---|
|-3-----3-----3-----3-----3---4---|
|---------------------------------|
|
|Gtr 2                            |
|---------------------------------|
|---------------------------------|
|---------------------------------|
|-5-----5-----5-----5-----5---6---|
|-3-----3-----3-----3-----3---4---|
|---------------------------------|


 Gtr 1
|---------------------------------|
|---------------------------------|
|---------------------5-------5---|
|-7-7-----7-7-----5-------3-----3-|
|-----5-5-----5-5---3---3---3-----|
|---------------------------------|

|Gtr 2                            |
|---------------------------------|
|---------------------------------|
|-------------------------------5-|
|-------7-------7-------5-3-3-3---|
|-5-5-5---5-5-5---3-3-3-----------|
|---------------------------------|


Gtr 1
|---------------------------------|
|---------------------------------|
|-------ph------------------------|
|-5----(5)~---5-----5-----5---6---|
|-3---x-------3-----3-----3---4---|
|---------------------------------|
|
|Gtr 2                            |
|---------------------------------|
|---------------------------------|
|-------ph------------------------|
|-5----(5)~---5-----5-----5---6---|
|-3---x-------3-----3-----3---4---|
|---------------------------------|

 Gtr 1
|---------------------------------|
|---------------------------------|
|---------------------------------|
|---------------------------------|
|-5---5---4---4---8---8---8---7---|
|---0---0---0---0---5---5---4---4-|

|Gtr 2                            |
|---------------------------------|
|---------------------------------|
|---------------------------------|
|---------------------------------|
|-5---5---4---4---8---8---8---7---|
|---0---0---0---0---5---5---4---4-|


 Gtr 1
|---------------------------------|
|---------------------------------|
|---------------------------------|
|-4---4------------7---7---7---6--|
|---------7---7--55--55--55--55---|
|---5---5---4---------------------|

|Gtr 2                            |
|---------------------------------|
|---------------------------------|
|---------------------------------|
|-4---4---6---6----6---6---4---4--|
|----------------77--77--66--66---|
|---5---5---4---------------------|



Higher Main Riff


Gtr. 1
|---------------------------------------------|
|---------------------------------------------|
|-17-14----16------------14-----14--16----16--|
|-------14----17-14---14------15--------17----|
|-------------------12------15--------17------|
|---------------------------------------------|
|                                             |
|Gtr. 2                                       |
|---------------------------------------------|
|---------------------------------------------|
|---------------------------------------------|
|-7--------5--------5----3----------5-----5---|
|-7--------5--------5----3----------5-----5---|
|-7--------5--------5----3----------5-----5---|


Gtr. 1
|---------------------------------------------|
|---------------------------------------------|
|-17-14----16------------14-----14--16-14--16-|
|-------14----17-14---14------15---------17---|
|-------------------12------15----------------|
|---------------------------------------------|
|                                             |
|Gtr. 2                                       |
|---------------------------------------------|
|---------------------------------------------|
|---------------------------------------------|
|-7--------5--------5----3----------5-----5---|
|-7--------5--------5----3----------5-----5---|
|-7--------5--------5----3----------5-----5---|


Keyboard Solo then that

 Both Gtrs
|-------------------------------------|
|-------------------------------------|
|-------------------------------------|
|-------------------------------------|
|-0-0-2p0--0-0-6s2--0-0-2s3--0-0-0----|
|-0-0-2p0--0-0-6s2--0-0-2s3--0-0-0----|

 Both Gtrs
|-------------------------------------|
|-------------------------------------|
|-------------------------------------|
|----------------5----5---------------|
|-0-0-2p0--0-2-3-3----3----0-2-0-2-3--|
|-0-0-2p0--0-2-3-----------0-2-0-2-3--|


Both Gtrs
|-------------------------------------|
|-------------------------------------|
|-------------------------------------|
|-------------------------------------|
|0--0-2p0--0-0-6s2--0-0-2s3--0-0-0----|
|0--0-2p0--0-0-6s2--0-0-2s3--0-0-0----|


Both Gtrs
|-------------------------------------|
|-------------------------------------|
|-------------------------------------|
|----------------6--------------------|
|-0-0-2p0--0-2-3-4--------------------|
|-0-0-2p0--0-2-3----------------------|
  . .      . . .



Gtr 1                  Natural Harmonics
|--------------------------------nh---|
|-------------------------------(7)---|
|-------------------------------(7)---|
|-------------------------------------|
|-0-0-2p0--0-0-6s2--0-0-2s3--0-0------|
|-0-0-2p0--0-0-6s2--0-0-2s3--0-0------|
     |
|Gtr 2                                |
|--------------------------------nh---|
|-------------------------------(7)---|
|-------------------------------(7)---|
|-------------------------------------|
|-0-0-2p0--0-0-6s2--0-0-2s3--0-0------|
|-0-0-2p0--0-0-6s2--0-0-2s3--0-0------|


 Gtr 1
|-------------------------------------|
|-------------------------------------|
|-------------------------------------|
|----------------5----5---------------|
|-0-0-2p0--0-2-3-3----3----0-2-0-2-3--|
|-0-0-2p0--0-2-3-----------0-2-0-2-3--|

|Gtr 2                                |
|-------------------------------------|
|-------------------------------------|
|----------------5----5---------------|
|--------------------------7-5---5-7--|
|-0-0-2p0--0-2-3---------------8------|
|-0-0-2p0--0-2-3----------------------|

Gtr 1
|--------------------------------nh---|
|-------------------------------(7)---|
|-------------------------------(7)---|
|-------------------------------------|
|-0-0-2p0--0-0-6s2--0-0-2s3--0-0------|
|-0-0-2p0--0-0-6s2--0-0-2s3--0-0------|

|Gtr 2                                |
|--------------------------------nh---|
|-------------------------------(7)---|
|-------------------------------(7)---|
|-------------------------------------|
|-0-0-2p0--0-0-6s2--0-0-2s3--0-0------|
|-0-0-2p0--0-0-6s2--0-0-2s3--0-0------|

Gtr 1
|---------------------------------|
|---------------------------------|
|---------------------------------|
|---------------------------------|
|-5---5---4---4---8---8---8---7---|
|---0---0---0---0---5---5---4---4-|

|Gtr 2                            |
|---------------------------------|
|---------------------------------|
|---------------------------------|
|---------------------------------|
|-5---5---4---4---8---8---8---7---|
|---0---0---0---0---5---5---4---4-|


 Gtr 1
|---------------------------------|
|---------------------------------|
|---------------------------------|
|-4---4------------7---7---7---6--|
|---------7---7--55--55--55--55---|
|---5---5---4---------------------|

|Gtr 2                            |
|---------------------------------|
|---------------------------------|
|---------------------------------|
|-4---4---6---6----6---6---4---4--|
|----------------77--77--66--66---|
|---5---5---4---------------------|



Chorus

Both Gtrs
|---------------------------------|
|---------------------------------|
|---------------------------------|
|-2-2-2-2-5-5-5-5-3-3-3-3-5-5-5-5-|
|-0-0-0-0-3-3-3-3-3-3-3-3-5-5-5-5-|
|-----------------3-3-3-3-5-5-5-5-|

Both Gtrs
|---------------------------------|
|---------------------------------|
|---------------------------------|
|-2-2-2-2-5-5-5-5-3-3-3-3-2-2-2-2-|
|-0-0-0-0-5-5-5-5-3-3-3-3-2-2-2-2-|
|---------5-5-5-5-3-3-3-3-2-2-2-2-|


|-----------------*5\(24)---------|
|-----------------*5\(24)---------|
|---------------------------------|
|-9-------------------------------|
|-7-------------------------------|
|---------------------------------|


Bridge(2:15)

 Both Gtrs  3x
|---------------------------------|
|---------------------------------|
|---------------------------------|
|-3-2-2-3-2-2-3-2-3-2-6-5-3-2-1-1-|
|-3-2-2-3-2-2-3-2-3-2-6-5-3-2-1-1-|
|-3-2-2-3-2-2-3-2-3-2-6-5-3-2-1-1-|

 Both Gtrs
|---------------------------------|
|---------------------------------|
|---------------------------------|
|-3-2-2-3-2-2-3-2-3-2-6~---6~-----|
|-3-2-2-3-2-2-3-2-3-2-6~---6~-----|
|-3-2-2-3-2-2-3-2-3-2-6~---6~-----|


Muted Bridge

 Both Gtrs 3x
|---------------------------------|
|---------------------------------|
|---------------------------------|
|-3-2-2-3-2-2-3-2-3-2-6-5-3-2-1-1-|
|-3-2-2-3-2-2-3-2-3-2-6-5-3-2-1-1-|
|-3-2-2-3-2-2-3-2-3-2-6-5-3-2-1-1-|
  . . . . . . . . . . . . . . . .

 Both Gtrs
|---------------------------------|
|---------------------------------|
|---------------------------------|
|-3-2---3-2---3-2---3-2-----------|
|-3-2---3-2---3-2---3-2-----------|
|-3-2---3-2---3-2---3-2-----------|




Gtr. 1
|---------------------------------------------|
|---------------------------------------------|
|-7---4-----6------------4-----4---6-------6--|
|--------4-----7--4---4------5----------7-----|
|-------------------2------5---------7--------|
|---------------------------------------------|
|                                             |
|Gtr. 2                                       |
|---------------------------------------------|
|---------------------------------------------|
|---------------------------------------------|
|-9--------7--------7----5----------7-----7---|
|-9--------7--------7----5----------7-----7---|
|-9--------7--------7----5----------7-----7---|

Gtr. 1
|---------------------------------------------|
|---------------------------------------------|
|-7---4-----6------------4-----4---6--4-----6-|
|--------4-----7--4---4------5-----------7----|
|-------------------2------5------------------|
|---------------------------------------------|
|                                             |
|Gtr. 2                                       |
|---------------------------------------------|
|---------------------------------------------|
|---------------------------------------------|
|-9--------7--------7----5----------7-----7---|
|-9--------7--------7----5----------7-----7---|
|-9--------7--------7----5----------7-----7---|

Guitar Solo not done yeet FUCK ING HARD SHIT
 Gtr. 2
|---------------------------------------------|
|---------------------------------------------|
|---------------------------------------------|
|-6---------------------2---------------------|
|-4---------------------0---------------------|
|---------------------------------------------|

Gtr. 2
|---------------------------------------------|
|---------------------------------------------|
|---------------------------------------------|
|-6----------------9----5---------------------|
|-4----------------7----3---------------------|
|---------------------------------------------|

Gtr. 2
|---------------------------------------------|
|---------------------------------------------|
|---------------------------------------------|
|-7---------------------3---------------------|
|-5---------------------1---------------------|
|---------------------------------------------|

Gtr. 2
|---------------------------------------------|
|---------------------------------------------|
|-----------------------------------7-5-------|
|-5----------------7---5---7------7-----8-7-5-|
|-3----------------5---3---5---5-8------------|
|---------------------------------------------|


Pre-Chorus




 Both Guitars
|---------------------------------|
|---------------------------------|
|---------------------------------|
|---------------------------------|
|-5---5---4---4---8---8---8---7---|
|---0---0---0---0---5---5---4---4-|

 Gtr 1
|---------------------------------|
|---------------------------------|
|-----------------------5-7-6-5-4-|
|-------------------7-6-----------|
|-5---5---4---4---5---------------|
|---0---0---0---0-----------------|

|Gtr 2                            |
|---------------------------------|
|---------------------------------|
|---------------------------------|
|------------------7----7-6-7-6-5-|
|-5---5---4---4------5-5----------|
|---0---0---0---0-----------------|


Both Guitars
|---------------------------------|
|---------------------------------|
|---------------------------------|
|---------------------------------|
|-5---5---4---4---8---8---8---7---|
|---0---0---0---0---5---5---4---4-|



Gtr 1
|---------------------------------|
|---------------------------------|
|---------------------------------|
|-4---4-----------7---7---7---6---|
|---------7---7-----5---5---5---5-|
|---5---5---4---4-----------------|
|
|Gtr 2                            |
|---------------------------------|
|---------------------------------|
|-----------------6---6---4---4---|
|-4---4---6---6-----7---7---6---6-|
|---------------------------------|
|---5---5---4---4-----------------|




 Both Gtrs
|---------------------------------|
|---------------------------------|
|---------------------------------|
|---------------------------------|
|---------------------------------|
|-00000--00001-1--00001-1--00000--|

End on

 Both Gtrs
|---------------|
|---------------|
|---------------|
|---------------|
|---------------|
|-2~------------|



==============================================================
Children of Bodom
Trashed, Lost and Strungout
Tabbed by Kevin Cruz

Tune all Strings down one whole step
Then tune the D string (after tuned) down another step
The Tunning should look like this : C G C F A D
Intro
|------------------------------------------------------------------|
|------------------------------------------------------------------|
|------------------------------------------------------------------|
|------------------------------------------------------------------|
|------------------------------------------------------------------|
|-0000-0-0000-0-0000-0-0-0000-0-0-0000-0-0000-0-0000-0-0-0000-12\0-|

|-------------------------|----------------------------|
|-------------------------|----------------------------|
|----------------------15-|-14---------14-13--------12-|
|-15--12--0-14-0-12-15----|-----12--15--------12--14---|
|-------------------------|----------------------------|
|-------------------------|----------------------------|

|-------------------------|----------------------------|
|-------------------------|----------------------------|
|----------------------15-|-14---------12-----14--1312-|
|-15--12--0-14-0-12-15----|-----12--14----15-----------|
|-------------------------|----------------------------|
|-------------------------|----------------------------|

Pre-Chorus
|-------------------------|-------------------------|
|----------------------14-|-------------------------|
|-14-11----13-------11----|-11-------14-13-11----13-| 4x.
|-------11----14-11-------|----11-12----------14----|
|-------------------------|-------------------------|
|-------------------------|-------------------------|

  N.H.

|-<5b>-|-----------------|---------------|-----------------|---------------|
|------|-----------------|---------------|-----------------|---------------|
|------|-----------------|---------------|-----------------|---------------|
|------|-----------------|---------------|-----------------|---------------|
|------|-----------------|---------------|-3p2-2-3p2-2-3p2-|-3p2-6p5-3p2-1-|
|------|-3p2-2-3p2-2-3p2-|-3p2-6p5-3p2-1-|-3p2-2-3p2-2-3p2-|-3p2-6p5-3p2-1-|

Verse 1
|----------------|-----------------|----------------|---------------|
|----------------|-----------------|----------------|---------------|
|----------------|-------------N.H.|----------------|---------------|
|----------------|-------------<3>-|-----7--------5-|---7-5---5-7---| 2x.
|-----0------1p0-|-----2/3-----<3>-|-----5--------3-|-x-----8-----0-|
|-0-0-0--0-0-1p0-|-0-0-2/3--0-0----|-0-0-0--0-0-0---|-------------0-|
  . .    . .       . .      . .      . .    . . .

Bridge
|-------------|-------------|-----------------|-----------------|
|-------------|-------------|-----------------|-----------------|
|-5----5----5-|---5----5--6-|-----------------|-0-0-5-0-2-2-5-2-|
|-5--x-5--x-5-|-x-5--x-5--6-|-7-7-3-3-7-7-3-3-|-----------------|
|-3--x-3--x-3-|-x-3--x-3--4-|-----------------|-----------------|
|-------------|-------------|-----------------|-----------------|
                              . . . . . . . .

|-------------|-------------|-----------------|-----------|
|------A.H.---|-------------|-----------------|-----------|
|-5----<5>--5-|---5----5--6-|-----------------|-----------|
|-5---------5-|---5----5--6-|-----------------|-7---------|
|-3---------3-|---3----3--4-|-5---5---4---4---|-5------x\-|
|-------------|-------------|---0---0---0---0-|--------x\-|
                                .   .   .   .

Verse 1 (2x)
Bridge 6/8

|-----------------------------------------------------------------|
|-----------------------------------------------------------------|
|-----------------------------------------------------------------|
|---------------------------------4---4---2---2---7---7---6---6---|
|-5---5---4---4---8---8---8---7-----------------------------------|
|---0---0---0---0---0---0---0---0---0---0---0---0---0---0---0---0-|
    .   .   .   .   .   .   .   .   .   .   .   .   .   .   .   .

Interlude
|------------------------|-------------------------|------------------------|
|---------------------17-|-------------------------|---------------------17-|
|-17-14----16-------14---|-14-------17-16-14----16-|-17-14----16-------14---|
|-------14----17-14------|----14-15----------17----|-------14----17-14------|
|------------------------|-------------------------|------------------------|
|------------------------|-------------------------|------------------------|

 1.                          2.           A.H.---->
|-------------------------| |-------------17b--17b--|
|-------------------------| |-------15-17-----------|
|-14-------17-16-14----16-| |-14-17-----------------|
|----14-15----------17----| |-----------------------|
|-------------------------| |-----------------------|
|-------------------------| |-----------------------|

---Keyboard Solo---

Verse 1 (2x)

Chorus
|-----------------|-----------------|-----------------|-----------------|
|-----------------|-----------------|-----------------|-----------------|
|-----------------|-----------------|-----------------|-----------------|
|-2-2-2-2-5-5-5-5-|-----------------|-2-2-2-2---------|-----------------|
|-0-0-0-0-3-3-3-3-|-3-3-3-3-5-5-5-5-|-0-0-0-0-5-5-5-5-|-3-3-3-3-2-2-2-2-|
|-----------------|-3-3-3-3-5-5-5-5-|---------5-5-5-5-|-3-3-3-3-2-2-2-2-|

Before Guitar Solo
|-----------------|-----------------|-----------------|-----------------|
|---------------7-|-----------------|---------------7-|-----------------|
|-7-4---6-----4---|-4-----7-6-4---6-|-7-4---6-----4---|-4-----7-6-4---6-|
|-----4---7-4-----|---4-5-------7---|-----4---7-4-----|---4-5-------7---|
|-----------------|-----------------|-----------------|-----------------|
|-----------------|-----------------|-----------------|-----------------|

Guitar Solo  N.H.
|----------9b-b-b-|-----------------7-|-12-11911-12-9149-12-11911-12-9149-|
|-N.H.-0~~--------|-------------7910--|-----------------------------------|
|--7b-------------|-------468689------|-----------------------------------|
|-----------------|----467------------|-----------------------------------|
|-----------------|-467---------------|-----------------------------------|
|-----------------|-------------------|-----------------------------------|

   N.H.---------->
|-----<7>----<5>--|-242220----------------------------------------|
|--<7>----<7>-----|-------242220----------------------------------|
|-----------------|-------------211917----------------------------|
|-----------------|-------------------211917-------------A.H.-----|
|-----------------|-------------------------191720191715--15------|
|-----------------|------------------------------------------12\--|

|---17-------171522\-|-1513171513---------------------|
|-15--1813/15--------|---------171513-----------------|
|--------------------|---------------1210141210-------|
|--------------------|-------------------------141210-|
|--------------------|--------------------------------|
|--------------------|--------------------------------|

|-------------------------|--------------------------|
|-------1110131011--------|--------------------------|
|-101412----------12109---|-14-----------------------|
|----------------------12-|---171514171514----1514---|
|-------------------------|---------------1715----17-|
|-------------------------|--------------------------|

|---------12h15t20p15p12----------12h15t20-|-p15t20p1512h15p12\1012101210\8-|
|-------13--------------13------13---------|--------------------------------|
|-----12------------------12--12-----------|--------------------------------|
|---14----------------------14-------------|--------------------------------|
|-15---------------------------------------|--------------------------------|
|------------------------------------------|--------------------------------|

|----------------|---------171615----|
|-10---13---15---|-18----15------18\-|
|-12b--15b--17b--|---1417------------|
|----------------|-------------------|
|----------------|-------------------|
|----------------|-------------------|

And thats all u need to know


Children of Bodom albums
2005 Trashed, Lost & Strung Out (EP)
2003 Hate Crew Deathroll
2001 Tokyo Warhearts (Live)
2001 Follow the Reaper
1999 Hatebreeder
1998 Something Wild
Trashed, Lost & Strung Out (EP) tabs
01Trashed, Lost & Strungout tabbass tab
02Knuckleduster tabbass tab
03Bed of Nails tabbass tab

 

1