Search tabs:
Browse artists: 0-9 | A | B | C | D | E | F | G | H | I | J | K | L | M | N | O | P | Q | R | S | T | U | V | W | X | Y | Z
/ CKY / CKY, Vol. 2 (2001) / Arto/Rowley Part guitar tab

CKy - Arto and Rowley
Tuning (Low to High):  Eb Ab Db Gb Bb Eb
Comments: david_couture@hotmail.com

This song uses some kind of phaser effect, but I'm not sure exactly what.

Riff 1:

-----------------------------------------------------------------
----------------------------3p0-0-0------------------------------
----------------0-0h2p0-2-2---------2-0-2-0----------------------
2-2p0-2-2-2h5p2-----------------------------2--------------------
-----------------------------------------------------------------
-----------------------------------------------------------------

-----------------------------------------------------------------
----------------------------3p0-0-0------------------------------
----------------0-0h2p0-2-2---------2-0-2-0-2--------------------
2p0-2-2-2h5p2----------------------------------------------------
-----------------------------------------------------------------
-----------------------------------------------------------------

Repeat 2x (don't play first note on repeat)

Riff 2:

-----------------------------------------------------------------
--------------3-0-0-0-0-0-0--------------------------------------
------0-2-2-2---------------------------------4-4-4-4-2-0-2------
2-2-2-----------------------2h5-4-4-4-4-4-2-2--------------------
-----------------------------------------------------------------
-----------------------------------------------------------------

Repeat 2x

Ending 1:

-----------------------------------------------------------------
-----------------------------------------------------------------
0------------------------------0---------------------------------
--------2-0-2-2h4p2-0-0------------------------------------------
-----------------------------------------------------------------
-----------------------------------------------------------------

Then repeat the entire thing, but instead of playing Ending 1 play this:

-----------------------------------------------------------------
-----------------------------------------------------------------
0-------------------------------------------------0--------------
-------2-0-2-2h4p2-0-0-----5-4-2-2h4p2-0-0-----------------------
-----------------------------------------------------------------
-----------------------------------------------------------------


CKY albums
2005 An Answer Can Be Found
2002 Infiltrate Destroy Rebuild
2001 CKY, Vol. 2
2001 CKY, Vol. 1
CKY, Vol. 2 tabs
01Santa's Coming tabbass tab
05Shippensburg tabbass tab
09Genesis 12a tabbass tab
10Fat Fuck tabbass tab
11Testing tabbass tab
14Eye Of The Tiger tabbass tab
15Step To Cky tabbass tab
19Arto/Rowley Part tabbass tab
28Foreign Objects tabbass tab

 

1