Search tabs:
Browse artists: 0-9 | A | B | C | D | E | F | G | H | I | J | K | L | M | N | O | P | Q | R | S | T | U | V | W | X | Y | Z
/ CKY / CKY, Vol. 2 (2001) / Fat Fuck guitar tab

Tuning:Drop-D tuning
CKY "Fat F**k"

h= hammer on
p= pull off

Intro/verse- Repeat around 16x
-------------------------------------------
-------------------------------------------
-------------------------------------------
-------------------------------------------
---5-0-5-4h2p0-2----2-2--------------------
------------------0------------------------

Chorus- Repeat 4x
-------------------------------------
-------------------------------------
-------------------------------------
-------------------2-0---------------
--2---2---2----0-2-------------------
---234-234-234-----------------------

Then repeat the verse around 12x
Then repeat chorus until song ends...going into the Outro!

Outro - Palm muted
-------------------------------------------
-------------------------------------------
---------4---------------4-----------------
--0------4---------0-----4-----------------
--0------2---------0-----2---------5p0-----
--0----------------0-----------------------
    x16    x16      x16    x16



CKY albums
2005 An Answer Can Be Found
2002 Infiltrate Destroy Rebuild
2001 CKY, Vol. 2
2001 CKY, Vol. 1
CKY, Vol. 2 tabs
01Santa's Coming tabbass tab
05Shippensburg tabbass tab
09Genesis 12a tabbass tab
10Fat Fuck tabbass tab
11Testing tabbass tab
14Eye Of The Tiger tabbass tab
15Step To Cky tabbass tab
19Arto/Rowley Part tabbass tab
28Foreign Objects tabbass tab

 

1