Search tabs:
Browse artists: 0-9 | A | B | C | D | E | F | G | H | I | J | K | L | M | N | O | P | Q | R | S | T | U | V | W | X | Y | Z
/ Cradle of Filth / The Principle of Evil Made Flesh (1994) / The Principle of Evil Made Flesh guitar tab

The Principle of Evil Made Flesh - Cradle of Filth

 This is unfinished... there're only about three lead riffs left to figure,
 but I wanted to get it out today so here it is. If anybody finishes this
 before I do, please post your work. Thanks...
 Oh, btw, tune down one step. Song structure not included in this file. And
 mail me at brunor@sggs.wcape.school.za


  Riff 1a:
 |---------------------|---------------------|
 |---------------------|---------------------|
 |---------------------|---------------------|
 |-3s4s3-3s4s3-7-6-5-6-|-3s4s3-3s4s3-7-6-5-6-|
 |-3s4s3-3s4s3-7-6-5-6-|-3s4s3-3s4s3-7-6-5-6-|
 |-1s2s1-1s2s1-5-4-3-4-|-1s2s1-1s2s1-5-4-3-4-|

  Riff 1b:
 |---------------------|---------------------|
 |---------------------|---------------------|
 |---------------------|---------------------|
 |-3-------------------|-3-----------7-6-5-6-|
 |-3-------------------|-3-----------7-6-5-6-|
 |-1-------------------|-1-----------5-4-3-4-|


  Riff 2a: "From the primeval mass..."    Riff 2b: Optional harmony
 |------------------------|              |-------------------------|
 |------------------------|              |-------------------------|
 |------------------------|              |-8----9----8----9--12-11-|
 |------------------------|              |-------------------------|
 |-6----7----6----7--10-9-|              |-------------------------|
 |------------------------|              |-------------------------|


  Riff 3a: "The abolition of..."    Riff 3b:
 |---------|                       |----------|
 |---------|                       |----------|
 |---------|                       |----------|
 |---------|                       |-9-10-9-8-|
 |-7-8-7-6-|                       |-7-8--7-6-|
 |---------|                       |-7-8--7-6-|


  Riff 4: "Shattered are the icons of the worthless..."
 |--------------------------------------|
 |--------------------------------------|
 |--------------------------------------|
 |-22222222--------22222222-------------|
 |-22222222--------22222222-2h3p2-0-----|
 |-00000000-2h3-1--00000000---------3-2-|


  Riff 5: "World without end..."
 |-----|-----|-----|-----|
 |-----|-----|-----|-----|
 |-----|-----|-----|-----|
 |-7---|-5---|-7---|-9---|
 |-5---|-3---|-5---|-7---|
 |-5---|-3---|-5---|-7---|
   hold  hold  hold  hold


  Riff 6a:
 |-----|-----|-----|-----|
 |-----|-----|-----|-----|
 |-----|-----|-----|-----|
 |-7---|-8---|-7---|-6---|
 |-5---|-6---|-5---|-4---|
 |-5---|-6---|-5---|-4---|
   damp  damp  damp  damp


 |-------------------------------------------------------|
 |-------------------------------------------------------|
 |-------------------------------------------------------|
 |-------------------------------------------------------|
 |-------------------------------------------------------|
 |-------------------------------------------------------|


  Riff 8: "To the name of Baphomet..."
 |---------------------------------|
 |---------------------------------|  You'll have to get the feel of this
 |---------------------------------|  riff yourself. Listen to the recording
 |-5s7--7-x-7-7-7s5--8s7-7-x-7-6-5-|  for appropriate damping, etc.
 |-5s7--7-x-7-7-7s5--8s7-7-x-7-6-5-|
 |-3s5--5-x-5-5-5s4--6s5-5-x-5-4-3-|


==============================================================================


Band: Cradle Of FIlth
Album: The Principle of Evil Made Flesh
Song: The Principle of Evil Made Flesh

Visit -=> www.metallouco.cjb.net
Transcribed by: Kai O'Brien     kaiobrien@geocities.com



Tune down one whole step.

Intro

x 4

-------------------
-------------------
-------------------
-3-3/4\3---7-6-5-6-
-3-3/4\3---7-6-5-6-
-1-1/2\1---5-4-3-4-

Riff 1

|---------------------------------|
|---------------------------------|
|---------------------------------|
|-3---3-3-3-3-3-3-7---6---5---6---|
|-3---3-3-3-3-3-3-7---6---5---6---|
|-1---1-1-1-1-1-1-5---4---3---4---|
| 1 e + a 2 e + a 3 e + a 4 e + a |
|                                 |
|---------------------------------|
|---------------------------------|
|-----------------9---8---7---8---|
|---------------------------------|
|---------------------------------|
|---------------------------------|
  1 e + a 2 e + a 3 e + a 4 e + a

Riff 2

x 2

------------------------
------------------------
-8---9---8---9---12--11-
-8---9---8---9---12--11-
-6---7---6---7---10--9--
------------------------

** Riff 1 **

Riff 3

|-----------------------------------------------------------------|
|-----------------------------------------------------------------|
|-----------------------------------------------------------------|
|-----------------------------------------------------------------|
|-7-8-7-6-7-8-7-6-7-8-7-6-7-8-7-6-7-8-7-6-7-8-7-6-7-8-7-6-7-8-7-6-|
|-----------------------------------------------------------------|
| 1 + 2 + 3 + 4 + 1 + 2 + 3 + 4 + 1 + 2 + 3 + 4 + 1 + 2 + 3 + 4 + |
|                                                                 |
|-----------------------------------------------------------------|
|-----------------------------------------------------------------|
|-----------------------------------------------------------------|
|-----------------------------------------------------------------|
|-----------------7-8-7-6-7-8-7-6-7-8-7-6-7-8-7-6-7-8-7-6-7-8-7-6-|
|-----------------------------------------------------------------|
  1 + 2 + 3 + 4 + 1 + 2 + 3 + 4 + 1 + 2 + 3 + 4 + 1 + 2 + 3 + 4 +

Riff 4

x 4

----------------------------
----------------------------
----------------------------
-2---3-5-3---2---9-10-9-7-3-
-2---3-5-3---2---9-10-9-7-3-
-0---1-3-1---0---7-8--7-5-1-

Riff 5

|-----------------------------------|
|-----------------------------------|
|-------------------10--------------|
|-7-----------------10--------------|
|-7-----------------8---------------|
|-5---------------------------------|
|                                   |
|-----------------------------------|
|-----6-5---5-----------6-5---5-----|
|---------7---7-5-----------7---7-5-|
|-----------------------------------|
|-----------------------------------|
|-----------------------------------|

|-----------------------------------|
|-----------------------------------|
|-7-----------------9---------------|
|-7-----------------9---------------|
|-5-----------------7---------------|
|-----------------------------------|
|                                   |
|-----------------------------------|
|-----------------------6-5---5-----|
|---------------------------7---7-5-|
|-----------------------------------|
|-----------------------------------|
|-----------------------------------|

Solo /w Riff 5 chords

-------------------------------5---7---8-7-8-7-8---10---8-7-8-7-8-7-
-----------5---6-5-6-5-6---8----------------------------------------
-5-4---7------------------------------------------------------------
--------------------------------------------------------------------
--------------------------------------------------------------------
--------------------------------------------------------------------

-10---12---13-12-------------------------------------------------------------
-----------------12b13-12b13r12-10-9-----------------------------------------
---------------------------------------9-10---10-9-10-9-10----------------9\-
-----------------------------------------------------------10-9-10-9-10------
-----------------------------------------------------------------------------
-----------------------------------------------------------------------------

Riff 6

---------------
---------------
---------------
-7---8---3---2-
-7---8---3---2-
-5---6---1---0-

Riff 7

-----------------------------------------------------------
-----------------------------------------------------------
-----------------------------------------------------------
-----------------------------------------------------------
-7h8-7p5---7h8-7p5---7h8-7p5---7h8-7p5---7h8-7p5---7h8-7p5-
-----------------------------------------------------------

-------------|---------
-------------|---------
-------------|---------
-11-10-13-12-|-11-10-8-
-11-10-13-12-|-11-10-8-
-9--8--11-10-|-9--8--6-


Cradle of Filth albums
2004 Nymphetamine
2003 Damnation and a Day
2000 Midian
1998 Cruelty and the Beast
1997 Dusk & Her Embrace
1994 The Principle of Evil Made Flesh
The Principle of Evil Made Flesh tabs
01Darkness Our Bride (Jugular Wedding) tabbass tab
02The Principle of Evil Made Flesh tabbass tab
03The Forest Whispers My Name tabbass tab
05The Black Goddess Rises tabbass tab
06One Final Graven Kiss tabbass tab
07A Crescendo of Passion Bleeding tabbass tab
08To Eve the Art of Witchcraft tabbass tab
09Of Mist and Midnight Skies tabbass tab
11A Dream of Wolves in the Snow tabbass tab
12Summer Dying Fast tabbass tab

 

1