Search tabs:
Browse artists: 0-9 | A | B | C | D | E | F | G | H | I | J | K | L | M | N | O | P | Q | R | S | T | U | V | W | X | Y | Z
/ Creed / My Own Prison (1997) / My Own Prison guitar tab

#----------------------------------PLEASE NOTE--------------------------------#
#This file is the author's own work and represents their interpretation of the#
#song. You may only use this file for private study, scholarship, or research.#
#-----------------------------------------------------------------------------#

Date: Mon, 27 Apr 1998 17:28:31 -0500
From: RacerX1947  (by way of cal woods)
Subject: c/creed/my_own_prison.tab


Creed - "My Own Prison"
>From the album "My Own Prison"
Written by Scott Stapp and Mark Tremonti
Transcribed by Mike Steedle (RacerX1947@aol.com)

Dropped D tuning (DADGBE)

Intro - Verse - Prechorus
  D          Bb          F
e-----------------------------------------------|
b------------------------------6----------------|
g-------2----------0--------5--5----------------|
d----0--0------0h3---3------3--3--3---------(0)-|
a-0--0--0--0h1---------0-3--3--3--3-3h5-3-------|
d-0----------------------3----------------5-3---|
Guitar 2 (left channel)
e-----------------------------------------------|
b-----------------------------------------------|
g-----------------------------------------------|
d--------------3------(3)-------------------(0)-|
a----------0h1-----1-1-0------------3h5-3-------|
d(0)--------------------------------------5-3---|
        (slightly behind tempo)

Chorus - chords
      F     E     E     D (E7 F/D)
e--------------------------------|
b-----------------------3--5--6--|
g-----5-----4-----3-----2--4--5--|
d-----3-----2-----1-----0--0--0--|
a-----3-----2-----1-----0--------|
d-----3-----2-----1-----0--------|
                           (first time only)

Third Verse
Guitar 1
   F       C      D       Bb
Guitar 2 (with slow phase shift)
e-------------------------------|
b----------6--6-----------6--6--|
g-------------------------------|
d--7~--7h8------8-7~--7h8-----8-|
a-----0--------------0----------|
d-------------------------------|



Creed albums
2001 Weathered
1999 Human Clay
1997 My Own Prison
My Own Prison tabs
01Torn tabbass tab
02Ode tabbass tab
03My Own Prison tabbass tab
04Pity For A Dime tabbass tab
05In America tabbass tab
06Illusion tabbass tab
07Unforgiven tabbass tab
08Sister tabbass tab
09What's This Life For tabbass tab
10One tabbass tab

 

1