Search tabs:
Browse artists: 0-9 | A | B | C | D | E | F | G | H | I | J | K | L | M | N | O | P | Q | R | S | T | U | V | W | X | Y | Z
/ Danzig / Danzig (1988) / Am I Demon guitar tab

AM I DEMON
==========
transcription: Robert Flemming

  intro:
e|----------------------------|-------------------------|
B|----------------------------|-------------------------|
G|----------------------------|-------------------------|
D|--7/9----------7/9----------|--7/9----------------12--|
A|--5/7-7-7-7-7--5/7-7-7-7-7--|--5/7-7-7-7-7-7-7-7--10--|
E|----------------------------|-------------------------|
        PM---->      PM---->         PM---------->

  verse:
e|----------------------------|-------------------------|
B|----------------------------|-------------------------|
G|----------------------------|-------------------------|
D|--7/9----------7/9----------|--7/9----------------12--|
A|--5/7----------5/7----------|--5/7----------------10--|
E|------0-0-0-0------0-0-0-0--|------0-0-0-0-0-0-0------|
        PM---->      PM---->         PM---------->

  bridge:
e|----------------------------|-------------------------|
B|----------------------------|-------------------------|
G|----------------------------|-------------------------|
D|----------------------------|---------------7---------|
A|--7/9----------7/9----------|--7/9----------5----7----|
E|--5/7-7-7-7-7--5/7-7-7-7-7--|--5/7-7-7-7-7-------5----|
        PM---->      PM---->         PM---->

Notes:  The noted guitar fill is a note best played on a guitar equipped 
        with a tremolo bridge; after striking a natural harmonic on the 
        seventh fret of the B string, the trem bar is depressed.

-songflow-
 intro (4x)
 verse (4x)
 C  A  w/fill
 verse (12x)
 C  A
 verse (10x)
 C  A
 bridge (4x)
 verse (8x) w/solo
 C  A
 bridge (4x)
 verse (10x)
 C  A
 bridge (4x)
 verse (8x) w/solo
 C  A
 bridge  (slowly)
 B



Danzig albums
2004 Circle of Snakes
2002 I Luciferi
1999 6:66 Satan's Child
1996 Blackacidevil
1994 Danzig 4
1993 Thrall: Demonsweatlive
1992 Danzig III: How the Gods Kill
1990 Danzig II: Lucifuge
1988 Danzig
Danzig tabs
01Twist of Cain tabbass tab
02Not of This World tabbass tab
03She Rides tabbass tab
04Soul on Fire tabbass tab
05Am I Demon tabbass tab
06Mother tabbass tab
07Possession tabbass tab
08End of Time tabbass tab
09The Hunter tabbass tab
10Evil Thing tabbass tab

 

1