Search tabs:
Browse artists: 0-9 | A | B | C | D | E | F | G | H | I | J | K | L | M | N | O | P | Q | R | S | T | U | V | W | X | Y | Z
/ Dashboard Confessional / A Mark, A Mission, A Brand, A Scar (2003) / As Lovers Go guitar tab

Artist: Dashboard Confessional
Title: As Lovers Go
Album: A Mark, a Mission, a Brand, a Scar
Tuning: Eb Ab Db Gb Bb eb
Submitted by waxersurfs@hotmail


4X - "She said 'I've got to be honest...'"
eb:|-0----0---------0-|
Bb:|-1----1---------1-|
Gb:|-0----2----2----0-|
Db:|-2----2----3----2-|
Ab:|-3----0----3----3-|
Eb:|-0---------1----0-|

   "All wrong.... all wrong, you've got me."
eb:|-0----5----5------x---x-|
Bb:|-1----5----5------0---0-|
Gb:|-0----5----5----5-5-5-5-|
Db:|-2----7----7----4---4---|
Ab:|-3----8----7----5---5---|
Eb:|-0----5----5------------|

   "I'll be true, I'll be useful..."
eb:|-0---------5----------------|
Bb:|-1---------5---------6------|
Gb:|-0----2----5----2----7----7-|
Db:|-2----3----7----3----7----8-|
Ab:|-3----3----7----3----5----8-|
Eb:|-0----1----5----1---------6-|


"Its as easy as lovers go..."
eb:|-0----0---------------------|
Bb:|-1----1---------6-----------|
Gb:|-0----0----2----7----2----4-|
Db:|-2----0----3----7----3----5-|
Ab:|-3----2----3----5----3----5-|
Eb:|-0----3----1---------1----3-|


"This is wonderful as loving goes..."
eb:|-0----0----0-----------|-0-|
Bb:|-1----1----1----6------|-1-|
Gb:|-0----0----2----7----7-|-0-|
Db:|-2----0----3----7----8-|-2-|
Ab:|-3----2---------5----8-|-3-|
Eb:|-0----3--------------6-|-0-| <-- End On

  4X - "For so long I thought I was asylum bound..."
eb:|-0----0---------0-|
Bb:|-1----1---------1-|
Gb:|-0----2----2----0-|
Db:|-2----2----3----2-|
Ab:|-3----0----3----3-|
Eb:|-0---------1----0-|

   "Tonight... tonight, tonight, you've got me"
eb:|-0----5----5------x---x-|
Bb:|-1----5----5------0---0-|
Gb:|-0----5----5----5-5-5-5-|
Db:|-2----7----7----4---4---|
Ab:|-3----8----7----5---5---|
Eb:|-0----5----5------------|

   "I'll be true, I'll be useful..."
eb:|-0---------5----------------|
Bb:|-1---------5---------6------|
Gb:|-0----2----5----2----7----7-|
Db:|-2----3----7----3----7----8-|
Ab:|-3----3----7----3----5----8-|
Eb:|-0----1----5----1---------6-|


"Its as easy as lovers go..."
eb:|-0----0---------------------|
Bb:|-1----1---------6-----------|
Gb:|-0----0----2----7----2----4-|
Db:|-2----0----3----7----3----5-|
Ab:|-3----2----3----5----3----5-|
Eb:|-0----3----1---------1----3-|

"This is wonderful as loving goes..."
eb:|-0----0----0----------------|
Bb:|-1----1----1----6-----------|
Gb:|-0----0----2----7----7----4-|
Db:|-2----0----3----7----8----5-|
Ab:|-3----2---------5----8----5-|
Eb:|-0----3--------------6----3-|

"Its as easy as lovers go..."
eb:|----------------------------|
Bb:|----------------------------|
Gb:|-7----6----4----9---12---14-|
Db:|-7----7----5----9---12---14-|
Ab:|-5----4----5----7---10---12-|
Eb:|-----------3----------------|

"This is wonderful as loving goes..."
eb:|-----------------------|
Bb:|-----------------------|
Gb:|-7----6----4----9----9-|
Db:|-7----7----5----9---10-|
Ab:|-5----4----5----7----7-|
Eb:|-----------3-----------|

"Its as easy as lovers go..."
eb:|----------------------------|
Bb:|----------------------------|
Gb:|-7----6----4----9---12---14-|
Db:|-7----7----5----9---12---14-|
Ab:|-5----4----5----7---10---12-|
Eb:|-----------3----------------|

"This is wonderful as loving goes..."
eb:|-------------|
Bb:|-------------|
Gb:|-7----6----4-|
Db:|-7----7----5-|
Ab:|-5----4----5-|
Eb:|-----------3-|

  "What's the sense in waiting?"
eb:|------8----5----3-|
Bb:|------8----5----3-|
Gb:|-9----9----6----4-|
Db:|-9---10----7----5-|
Ab:|-7---10----7----5-|
Eb:|------8----5----3-|


Dashboard Confessional albums
2003 A Mark, A Mission, A Brand, A Scar
2002 MTV Unplugged
2001 The Places You Have Come to Fear the Most
2000 The Swiss Army Romance
A Mark, A Mission, A Brand, A Scar tabs
01Hands Down tabbass tab
02Rapid Hope Loss tabbass tab
03As Lovers Go tabbass tab
04Carry This Picture tabbass tab
05Bend and Not Break tabbass tab
06Ghost of a Good Thing tabbass tab
07Am I Missing tabbass tab
08Morning Calls tabbass tab
09Carve Your Heart Out Yourself tabbass tab
10So Beautiful tabbass tab
11Hey Girl tabbass tab
12If You Can't Leave It Be, Might as Well Make It Bleed tabbass tab
13Several Ways to Die Trying tabbass tab

 

1