Search tabs:
Browse artists: 0-9 | A | B | C | D | E | F | G | H | I | J | K | L | M | N | O | P | Q | R | S | T | U | V | W | X | Y | Z
/ Dashboard Confessional / A Mark, A Mission, A Brand, A Scar (2003) / Carry This Picture guitar tab

Intro
|------------------------------------------------------------------------------
|------------------------------------------------------------------------------
|-------2p0-----------------------0-0-----0-0-----0-0-----0-0-----0-0-----0-0--
|-0h2h4-----4-----3-3-----0-0-----2-2-----2-0-----5-5-----5-0-----4-4-----4-0--
|-----------------2-2-----2-2-----3-3-----3-3-----4-4-----4-4-----5-5-----5-5--
|-------------3-3-3-3-3-3-3-3-3-3-3-3-3-3-3-3-5-5-5-5-5-5-5-5-5-5-5-5-5-5-5-5--

-------------------------------------------------------------------|
-------------------------------------------------------------------|
---------------------0-0-----0-0-----0-0-----0-0-----0-0-----0-0---|
-----3-3-----3-0-----2-2-----2-0-----5-5-----5-0-----4-4-----5-4-0-|
-----2-2-----2-2-----3-3-----3-3-----4-4-----4-4-----5-5-----5-5-5-|
-3-3-3-3-3-3-3-3-3-3-3-3-3-3-3-3-5-5-5-5-5-5-5-5-5-5-5-5-5-5-5-5---|

Verse
|-----------------------------------------------------------------
|-----------------------------------------------------------------
|---------------------0-0-----0-0-----0-0-----0-0-----0-0-----0-0-
|-----3-0-----3-0-----2-2-----2-0-----5-5-----5-0-----4-4-----4-0-
|-----2-2-----2-2-----3-3-----3-3-----4-4-----4-4-----5-5-----5-5-
|-3-3-3-3-3-3-3-3-3-3-3-3-3-3-3-3-5-5-5-5-5-5-5-5-5-5-5-5-5-5-5-5-

Chorus
|----3--------------------------0------------------------0----------0---0-0---
|----0--------------------------0------------------------0----------0---0-0---
|----0--------------------------0------------------------0----------0---0-0---
|----0--------------------------4------------------------5----------5---7-9---
|----2--------------------------5------------------------7----------7---9-12--
|----3------------------------------------------------------------------------
 And colour the coast with your smile, it's the most genuine thing I've ever

-0--0-----------0----------0---------(3)-
-0--0-----------0----------0---------(0)-
-0--0-----------0----------0---------(0)-
-7--x-----------2----------4---------(0)-
-9--7-----------3----------5---------(2)-
----8--------------------------------(3)-
 seen.  I was so lost, but now, I believe

Ending to second chorus
---------------------0-----------------------0---------0---0-0--0--0---------
---------------------0-----------------------0---------0---0-0--0--0---------
---------------------0-----------------------0---------0---0-0--0--0---------
---------------------4-----------------------5---------5---7-9--7--x---------
---------------------5-----------------------7---------7---9-12-9--7---------
-------------------------------------------------------------------8---------
 in the coast, your smile it's the most genuine thing I've ever seen.  I was

---0-----------0------------|
---0-----------0------------|
---0-----------0------------|
---2-----------4------------|
---3-----------5------------|
----------------------------|
 so lost, but now, I believe

Outro
|-----------------3-
|-----------------3-
|---------0-------0-
|-----0-4---4-0---0-
|---2-----------2-2-
|-3---------------3-


Dashboard Confessional albums
2003 A Mark, A Mission, A Brand, A Scar
2002 MTV Unplugged
2001 The Places You Have Come to Fear the Most
2000 The Swiss Army Romance
A Mark, A Mission, A Brand, A Scar tabs
01Hands Down tabbass tab
02Rapid Hope Loss tabbass tab
03As Lovers Go tabbass tab
04Carry This Picture tabbass tab
05Bend and Not Break tabbass tab
06Ghost of a Good Thing tabbass tab
07Am I Missing tabbass tab
08Morning Calls tabbass tab
09Carve Your Heart Out Yourself tabbass tab
10So Beautiful tabbass tab
11Hey Girl tabbass tab
12If You Can't Leave It Be, Might as Well Make It Bleed tabbass tab
13Several Ways to Die Trying tabbass tab

 

1