Search tabs:
Browse artists: 0-9 | A | B | C | D | E | F | G | H | I | J | K | L | M | N | O | P | Q | R | S | T | U | V | W | X | Y | Z
/ Dashboard Confessional / A Mark, A Mission, A Brand, A Scar (2003) / Morning Calls guitar tab

from dashtabs from the member "puffymaster" he gets all credit

Gtr 1
|------------0------------------0----------0-------|
|-----12----------12---12----------12------------|
|-14----14---14----14----14---14----14--------|
|----------------------------------------------------|
|----------------------------------------------------|
|----------------------------------------------------|
Gtr 2 They are not synchronized…!
|-----0-------0---------|------0--------0------------|
|-10---10------9------|---10---10-------9---------|
|-----------8------9-6-|-------------8-------9-4----|
|------------------------|-----------------------------|
|------------------------|-----------------------------|
|------------------------|-----------------------------|


E5
Morning calls for pain relief
Aadd/E
A line above the step beneath
E5 Badd11/F#
The worst that you could do
E5 Aadd/E Badd11/F#
And the best that you could hope for, is hardly the best

E5
Tepid waters chase the pills
Aadd/E
With turpentine and chamomile
E5 Badd11/F#
And don't get cheap with the wine
E5 Aadd/E Badd11/F#
You need to be up all of the time

Aadd/E Badd11/F#
Shield you eyes, conceal your lies

C#m7/Ab Aadd/E
Don't blink, everyone's watching
C#m7/Ab Aadd/E
They'll think you're up to something
C#m7/Ab Badd11/F# Aadd/E
They need for you to be
C#m7/Ab Badd11/F# Aadd/E
Everything that they cannot

A5b A5

Solo 01
Gmb B5
|---4---5---7----5---4---4---4---4---4----|
|-5---5---5----5---5---7---7---5---5------|
|----------------------------------------------|
|----------------------------------------------|
|----------------------------------------------|
|----------------------------------------------|

E5 Bm11/E A5
|---4---5---7----5---4---4---4---4---4----|
|-5---5---5----5---5---7---7---5---5------|
|---------------------------------------------|
|---------------------------------------------|
|---------------------------------------------|
|---------------------------------------------|

Gmb B5
|---4---5---7----5---4---4---4---4---4----|
|-5---5---5----5---5---7---7---5---5------|
|---------------------------------------------|
|---------------------------------------------|
|---------------------------------------------|
|---------------------------------------------|

Solo 02
A5 E5
|-0-0-0-0------------|
|-2-4-5-7------0-----|
|-----------1-2-------|
|----------------------|
|----------------------|
|----------------------|

Bend 1/2
A5 E5 /
|-0----0--0-----0--0-/------0--0--0----|
|-2----4--5-----7--9--------7--5--7----|
|------------------------------------------|
|------------------------------------------|
|------------------------------------------|
|------------------------------------------|

Bridge
B5-------------------------->
|-----------------------------------------------------|
|-----------------------------------------------------|
|-4-4-4-4---6-6-6-6---8-8-8-8---11-11-11-----|
|-----------------------------------------------------|
|-2-2-2-2---4-4-4-4---6-6-6-6----9--9--9------|
|-----------------------------------------------------|


C#m7/Ab Aadd/E
Don't blink, everyone's watching
C#m7/Ab Aadd/E
They'll think you're up to something
C#m7/Ab Badd11/F# Aadd/E
They need for you to be
C#m7/Ab Badd11/F# Aadd/E
Everything that they cannot

(with solo 02)
Be themselves

(Solo 02)

Outro
A5
|-0-0-0-0----------------------------------||
|-2-4-5-7----------------------------------||
|--------------------------------------------||
|--------------------------------------------||
|--------------------------------------------||
|-------------0-2-4-5-7-4-5--7-8--5-4--||



E5 0 7 9 9 0 0
Aadd/E x 7 7 6 0 0
Badd11/F# x 9 9 8 0 0
C#m7/Ab x 11 11 9 0 0
(The other chords you can figure it out by yourselves...)


Dashboard Confessional albums
2003 A Mark, A Mission, A Brand, A Scar
2002 MTV Unplugged
2001 The Places You Have Come to Fear the Most
2000 The Swiss Army Romance
A Mark, A Mission, A Brand, A Scar tabs
01Hands Down tabbass tab
02Rapid Hope Loss tabbass tab
03As Lovers Go tabbass tab
04Carry This Picture tabbass tab
05Bend and Not Break tabbass tab
06Ghost of a Good Thing tabbass tab
07Am I Missing tabbass tab
08Morning Calls tabbass tab
09Carve Your Heart Out Yourself tabbass tab
10So Beautiful tabbass tab
11Hey Girl tabbass tab
12If You Can't Leave It Be, Might as Well Make It Bleed tabbass tab
13Several Ways to Die Trying tabbass tab

 

1