Search tabs:
Browse artists: 0-9 | A | B | C | D | E | F | G | H | I | J | K | L | M | N | O | P | Q | R | S | T | U | V | W | X | Y | Z
/ Dashboard Confessional / A Mark, A Mission, A Brand, A Scar (2003) / So Beautiful guitar tab

Dashboard Confessional
"So Beautiful"
A Mark, A Mission, A Brand, A Scar

Intro
Eb|--0---0----0--0--0--0--0--|
Bb|--0---0----0--0--0--0--0--|
Gb|--8---9----6--8--4--8--9--|
Db|--9---11---7--9--4--9--9--|
Ab|-(9)-(11)-(7)-6--2--6--7--|
eb|--x---x----x--x-(0)-x--0--|

Verse
Eb|--0--0--0--0--|
Bb|--0--0--0--0--|
Gb|--8--8--6--9--|
Db|--9--9--6--9--|
Ab|-(9)-6--4--7--|
eb|--x--x--x--x--|

Chorus
Eb|--0--0--0--|
Bb|--0--0--0--|
Gb|--8--8--9--|
Db|--9--9--9--|
Ab|-(9)-6--7--|
eb|--x--x--0--|

Fill
Eb|--0--0--0--0--0--|
Bb|--0--0--0--0--0--|
Gb|--8--8--1--4--2--|
Db|--9--9--2--6--2--|
Ab|-(9)-6--2--6--0--|
eb|--x--x--0--x--x--|




-RSamank


Dashboard Confessional albums
2003 A Mark, A Mission, A Brand, A Scar
2002 MTV Unplugged
2001 The Places You Have Come to Fear the Most
2000 The Swiss Army Romance
A Mark, A Mission, A Brand, A Scar tabs
01Hands Down tabbass tab
02Rapid Hope Loss tabbass tab
03As Lovers Go tabbass tab
04Carry This Picture tabbass tab
05Bend and Not Break tabbass tab
06Ghost of a Good Thing tabbass tab
07Am I Missing tabbass tab
08Morning Calls tabbass tab
09Carve Your Heart Out Yourself tabbass tab
10So Beautiful tabbass tab
11Hey Girl tabbass tab
12If You Can't Leave It Be, Might as Well Make It Bleed tabbass tab
13Several Ways to Die Trying tabbass tab

 

1