Search tabs:
Browse artists: 0-9 | A | B | C | D | E | F | G | H | I | J | K | L | M | N | O | P | Q | R | S | T | U | V | W | X | Y | Z
/ Dashboard Confessional / The Places You Have Come to Fear the Most (2001) / Saints and Sailors guitar tab

This is Saints n Sailors by Dashboard Confessional, one of the coolest bands ever. The song's played in DAGDAD so ur gonna hafta do a little tuning. Adios DB forever.


Verse 1:

...............................This is where i say ive had enough. no one should
Db----------------------x-------------------------------x-------------------
Ab--------0-------------5------------------------------12-------------------
Gb------0---------------7------------------------------14-------------------
Db----0-------0--4/5----4------------------------------11-------------------
Ab--2-------0-----------0-------------------------------0-------------------
Db----------------------0-------------------------------x-------------------

........feel the way that I.........feel nooooooow
Db---x-x-x-x--x-------x-x-x-x-x---x-x-x-x-x---x-x-x-x-x--------------
Ab---x-x-x-x--x-------x-x-x-x-x---x-x-x-x-x---x-x-x-x-x--------------
Gb---x-x-x-x-11-------x-x-x-x-9---x-x-x-x-7---x-x-x-x-7--------------
Db---x-x-x-x--9-------x-x-x-x-7---x-x-x-x-5---x-x-x-x-5--------------
Ab---x-x-x-x--9-------x-x-x-x-7---x-x-x-x-5---x-x-x-x-5--------------
Db---x-x-x-x--9-------x-x-x-x-7---x-x-x-x-5---x-x-x-x-5--------------

.....A walking open wound....a trophy display of bruises
Db----x--------------------------x--------------------
Ab----5--------------------------12-------------------
Gb----7--------------------------14-------------------
Db----4--------------------------11-------------------
Ab----0---------------------------0-------------------
Db----0---------------------------x-------------------

......and I don\\'t believe that I\\'m getting any better.........any better
Db---x-x-x-x--x-------x-x-x-x-x---x-x-x-x-x---x-x-x-x-x-----x---------
Ab---x-x-x-x--x-------x-x-x-x-x---x-x-x-x-x---x-x-x-x-x-----x---------
Gb---x-x-x-x-11-------x-x-x-x-9---x-x-x-x-7---x-x-x-x-7-----7---------
Db---x-x-x-x--9-------x-x-x-x-7---x-x-x-x-5---x-x-x-x-5-----7---------
Ab---x-x-x-x--9-------x-x-x-x-7---x-x-x-x-5---x-x-x-x-5-----7---------
Db---x-x-x-x--9-------x-x-x-x-7---x-x-x-x-5---x-x-x-x-5-----7---------

Chorus 1:

........Waiting here with hopes the phone will ring, and I\\'m thinking
Db----x------------------------------------------x--------------x----
Ab----5------------------------------------------x--------------x----
Gb----7------------------------------------------7--------------7----
Db----4------------------------------------------5--------------7----
Ab----0------------------------------------------5--------------7----
Db----0------------------------------------------5--------------7----

awful things, pretty sure that few would notice...........................
Db----x------------------------------------x----------------------------
Ab----5------------------------------------x----------------0-----------
Gb----7------------------------------------7--------------0-------------
Db----4------------------------------------5------------0-------0--4/5--
Ab----0------------------------------------5----------2-------0---------
Db----0------------------------------------5----------------------------

............And this apartment...is starving for an argument
Db----x----------------------------x----------------x----------
Ab----5----------------------------x----------------x----------
Gb----7----------------------------7----------------7----------
Db----4----------------------------5----------------7----------
Ab----0----------------------------5----------------7----------
Db----0----------------------------5----------------7----------

........Anything at all to break the silence....
Db----x------------------------------x----------------------------
Ab----5------------------------------x----------------0-----------
Gb----7------------------------------7--------------0-------------
Db----4------------------------------5------------0-------0--4/5--
Ab----0------------------------------5----------2-------0---------
Db----0------------------------------5----------------------------

Verse 2:

........Wandering this house like i never wanted out..........
Db----x------------------------------x-------------------
Ab----5-----------------------------12-------------------
Gb----7-----------------------------14-------------------
Db----4-----------------------------11-------------------
Ab----0------------------------------0-------------------
Db----0------------------------------x-------------------

....and this is about as social....as I get now......
Db-----x-x-x-x--x-------x-x-x-x-x---x-x-x-x-x---x-x-x-x-x--------------
Ab-----x-x-x-x--x-------x-x-x-x-x---x-x-x-x-x---x-x-x-x-x--------------
Gb-----x-x-x-x-11-------x-x-x-x-9---x-x-x-x-7---x-x-x-x-7--------------
Db-----x-x-x-x--9-------x-x-x-x-7---x-x-x-x-5---x-x-x-x-5--------------
Ab-----x-x-x-x--9-------x-x-x-x-7---x-x-x-x-5---x-x-x-x-5--------------
Db-----x-x-x-x--9-------x-x-x-x-7---x-x-x-x-5---x-x-x-x-5--------------

And I\\'m throwing away the letters that I am writing you .
Db----------x--------------------------------------x-------------------
Ab----------5-------------------------------------12-------------------
Gb----------7-------------------------------------14-------------------
Db----------4-------------------------------------11-------------------
Ab----------0--------------------------------------0-------------------
Db----------0--------------------------------------x-------------------

\\'cause they would never do,............I would never do.....never
Db------------------x---x--x--x--x-x-x-x-----x-------------x--------
Ab------------------x---x--x--x--x-x-x-x-----x-------------x--------
Gb-----------------11--11-11-11--9-9-9-9-----7-------------7--------
Db------------------9--9---9--9--7-7-7-7-----5-------------7--------
Ab------------------9--9---9--9--7-7-7-7-----5-------------7--------
Db------------------9--9---9--9--7-7-7-7-----5-------------7--------


Chorus 2:

........Waiting here with hopes the phone will ring, and I\\'m thinking
Db----x------------------------------------------x--------------x----
Ab----5------------------------------------------x--------------x----
Gb----7------------------------------------------7--------------7----
Db----4------------------------------------------5--------------7----
Ab----0------------------------------------------5--------------7----
Db----0------------------------------------------5--------------7----

awful things, pretty sure that few would notice...........................
Db----x------------------------------------x----------------------------
Ab----5------------------------------------x----------------0-----------
Gb----7------------------------------------7--------------0-------------
Db----4------------------------------------5------------0-------0--4/5--
Ab----0------------------------------------5----------2-------0---------
Db----0------------------------------------5----------------------------

............And this apartment...is starving for an argument
Db----x----------------------------x----------------x----------
Ab----5----------------------------x----------------x----------
Gb----7----------------------------7----------------7----------
Db----4----------------------------5----------------7----------
Ab----0----------------------------5----------------7----------
Db----0----------------------------5----------------7----------

........Anything at all to break the silence....
Db----x------------------------------x----------x---------------
Ab----5------------------------------x----------x---------------
Gb----7------------------------------7----------x---------------
Db----4------------------------------5----------7---------------
Ab----0------------------------------5----------7---------------
Db----0------------------------------5----------7---------------


Bridge:

..........So don\\'t be a liar. Don\\'t say that everything\\'s working
Db--x------------------x--------------------x-------------x-----------
Ab--x------------------x-------------------*9------------*7-----------
Gb--x------------------x-------------------11-------------9-----------
Db-12-----------------12-------------------12------------11-----------
Ab--9-----------------10--------------------0-------------0-----------
Db--9-----------------10--------------------x-------------x-----------
. *optional

....when everything\\'s broken and you smile like a saint,
Db-------x------------7------------------x-------------------------
Ab-------5------------0------------------x-------------------------
Gb-------7------------6------------------x-------------------------
Db-------4------------7-----------------12-------------------------
Ab-------0------------0------------------9-------------------------
Db-------0------------x------------------9-------------------------

but you curse like a sailor, and your eyes say the jokes on me....
Db-------x------------------------------x-------------x---------x----7----
Ab-------x-----------------------------*9------------*7---------5----9----
Gb-------x-----------------------------11-------------9---------7----6----
Db------12-----------------------------12------------11---------4----x----
Ab------10------------------------------0-------------0---------0----0----
Db------10------------------------------x-------------x---------0----x----
. *optional

(Palm Muted)

Well im not laughing, you\\'re not leaving, well who do I think I am kidding?
Db---x------------------x-------------------------x---------------x------------
Ab---x------------------x-------------------------x---------------x------------
Gb---x------------------x-------------------------x---------------x------------
Db---9------------------7-------------------------5---------------7------------
Ab---9------------------7-------------------------5---------------7------------
Db---9------------------7-------------------------5---------------7------------

when I\\'m the only one locked in this cell......
Db---x--------------x-------------------x---------------------------
Ab---x--------------x-------------------x---------------------------
Gb---x--------------x-------------------x---------------------------
Db---9--------------7-------------------5---------------------------
Ab---9--------------7-------------------5---------------------------
Db---9--------------7-------------------5---------------------------

Chorus 3:

........Waiting here with hopes the phone will ring, and I\\'m thinking
Db----x------------------------------------------x--------------x----
Ab----5------------------------------------------x--------------x----
Gb----7------------------------------------------7--------------7----
Db----4------------------------------------------5--------------7----
Ab----0------------------------------------------5--------------7----
Db----0------------------------------------------5--------------7----

awful things, pretty sure that few would notice...........................
Db----x------------------------------------x----------------------------
Ab----5------------------------------------x----------------0-----------
Gb----7------------------------------------7--------------0-------------
Db----4------------------------------------5------------0-------0--4/5--
Ab----0------------------------------------5----------2-------0---------
Db----0------------------------------------5----------------------------

............And this apartment...is starving for an argument
Db----x----------------------------x----------------x----------
Ab----5----------------------------x----------------x----------
Gb----7----------------------------7----------------7----------
Db----4----------------------------5----------------7----------
Ab----0----------------------------5----------------7----------
Db----0----------------------------5----------------7----------

........Anything at all to break the silence....
Db----x------------------------------x--------------------------
Ab----5------------------------------x---------------0----------
Gb----7------------------------------7-------------0------------
Db----4------------------------------5-----------0-------0--4/5-
Ab----0------------------------------5---------2-------0--------
Db----0------------------------------5--------------------------


Bridge:

..........So don\\'t be a liar. Don\\'t say that everything\\'s working
Db--x------------------x--------------------x-------------x-----------
Ab--x------------------x-------------------*9------------*7-----------
Gb--x------------------x-------------------11-------------9-----------
Db-12-----------------12-------------------12------------11-----------
Ab--9-----------------10--------------------0-------------0-----------
Db--9-----------------10--------------------x-------------x-----------
. *optional

....when everything\\'s broken and you smile like a saint,
Db-------x------------7------------------x-------------------------
Ab-------5------------0------------------x-------------------------
Gb-------7------------6------------------x-------------------------
Db-------4------------7-----------------12-------------------------
Ab-------0------------0------------------9-------------------------
Db-------0------------x------------------9-------------------------

but you curse like a sailor, and your eyes say the joke's on me....
Db-------x------------------------------x-------------x---------x---------
Ab-------x-----------------------------*9------------*7---------5--------
Gb-------x-----------------------------11-------------9---------7--------
Db------12-----------------------------12------------11---------4--------
Ab------10------------------------------0-------------0---------0--------
Db------10------------------------------x-------------x---------0--------
. *optional


end

Db-----------------------x--------
Ab---------0-------------5--------
Gb-------0---------------7--------
Db-----0--------0--4/5---4--------
Ab---2--------0----------0--------
Db-----------------------0--------


Dashboard Confessional albums
2003 A Mark, A Mission, A Brand, A Scar
2002 MTV Unplugged
2001 The Places You Have Come to Fear the Most
2000 The Swiss Army Romance
The Places You Have Come to Fear the Most tabs
01The Brilliant Dance tabbass tab
02Screaming Infidelities tabbass tab
03The Best Deceptions tabbass tab
04This Ruined Puzzle tabbass tab
05Saints and Sailors tabbass tab
06The Good Fight tabbass tab
07Standard Lines tabbass tab
08Again I Go Unnoticed tabbass tab
09The Places You Have Come to Fear the Most tabbass tab
10This Bitter Pill tabbass tab

 

1